Guitar Tabs for Dragon Soul

(/) Slide Up  (\) Slide Down  (h) Hammer On  (p) Pull Off  (b) Bend (r) Release (v) Vibrato (x) Muted

Tabs for Song : 
BPM : 150

Song lyrics here 
E|-----------1--1-----3--5-----3--5-----3--1--0--------0-----1-----0-----1-----0--------------
B|--4--4--4--------------------------------------3-----------------------------------3--1--0--
G|--------------------------------------------------------------------------------------------
D|--------------------------------------------------------------------------------------------
A|--------------------------------------------------------------------------------------------
E|--------------------------------------------------------------------------------------------

Song lyrics here 
E|--------1--0--3-----------0--1-----0--1--3--3--5-----------6--6--6--5--1--------------------
B|-----1-----------1-----3--------3-----------------0--1-----------------------1-----3--1-----
G|--2-----------------------------------------------------------------------------0-----------
D|--------------------------------------------------------------------------------------------
A|--------------------------------------------------------------------------------------------
E|--------------------------------------------------------------------------------------------

E|-----0--1--1-----1--0-----------1--0-----------------------------0--1-----1-----1--0--------
B|--3--------------------3--1-----------3--1-----1-----3--1-----3-----------------------1--3--
G|--------------------------------------------------0-----------------------------------------
D|--------------------------------------------------------------------------------------------
A|--------------------------------------------------------------------------------------------
E|--------------------------------------------------------------------------------------------

E|--------------------1--0-----------1--0--------------------------------0--1--1-----1--0-----------
B|--1-----3--1--1-----------3--1-----------3--1--1-----------3--1-----3--------------------3--1--1--
G|-----0-----------------------------------------------0--------------------------------------------
D|--------------------------------------------------------------------------------------------------
A|--------------------------------------------------------------------------------------------------
E|--------------------------------------------------------------------------------------------------

E|-----------------------0-----------------------------3-----1--0--------------------1-----
B|--3--3--------0--1-----------3--1--3-----------0-----------------3--------0--1-----------
G|-----------2--------2--------------------0--2-----0--------------------2--------2--------
D|-----------------------------------------------------------------------------------------
A|-----------------------------------------------------------------------------------------
E|-----------------------------------------------------------------------------------------

E|--0-----------0-----------------------------3-----3--5--3--5-----3--1--0-----
B|-----3--1--------3--3--1--3--------1--------------------------------------3--
G|--------------------------------2-----2--------------------------------------
D|-----------------------------------------------------------------------------
A|-----------------------------------------------------------------------------
E|-----------------------------------------------------------------------------

E|--0--1--0--1--0-----------------------1-----0--3-----------0--1-----0--1-----3-----
B|--------------------3--1--0--------1--------------1-----3--------3-----------------
G|--------------------------------2--------------------------------------------------
D|-----------------------------------------------------------------------------------
A|-----------------------------------------------------------------------------------
E|-----------------------------------------------------------------------------------

E|--3--5--3--5-----3--1--0-----------0--1--0--1--0-----------------------1-----0--3--------
B|-----------------------------3-----------------------3--1--0--------1--------------1-----
G|-----------------------------------------------------------------2-----------------------
D|-----------------------------------------------------------------------------------------
A|-----------------------------------------------------------------------------------------
E|-----------------------------------------------------------------------------------------

E|-----0--1-----0--1-----3--3--5-----------3--3--1--1--3--
B|--3--------3--------------------0--1--------------------
G|--------------------------------------------------------
D|--------------------------------------------------------
A|--------------------------------------------------------
E|--------------------------------------------------------

Use manual mode to free up cursor. Paste any tab in acousterr tab maker and we'll play it !!!
tabs and chords, guitar tabs, music transcription, music technology, deep learning, music information retrieval, transcribe into tabs & chords, chordify, music renditions, songsterr, reverbnation, tabulature, bollywood chords, ultimate guitar, yousician, guitar lessons, acoustic guitar, electric guitar, guitar tuner, 911 tabs