Bass Tabs for Soul Ripper

SOUL RIPPER - BASS TAB

RIFF

G|--------------------------------------------------------
D|-----------------------------------5--------------------
A|--------7-----8--------5--7-----------8--7--5-----------
E|--5--5-----5-----5--5--------5--5-----------------------

G|-----------------------------------------
D|-----------------------------------------
A|--------7-----8--------5--7--------------
E|--5--5-----5-----5--5--------5--5--1--3--

G|-----------------------------------------------
D|-----------------------------------5-----------
A|--------7-----8--------5--7-----------8--7--5--
E|--5--5-----5-----5--5--------5--5--------------

G|-----------------------------------------
D|-----------------------------------------
A|--------7-----8--------5--7--------------
E|--5--5-----5-----5--5--------5--5--8--7--

VERSE

G|-----------------------------------------------------------------------------
D|-----------------------------------------------------------------------------
A|-----------------------------3--3--3--3--3--3--3--3--------------------------
E|--5--5--5--5--5--5--5--5--5--------------------------3--3--3--3--3--3--3--3--

G|-----------------------------------------------------
D|-----------------------------------------------------
A|-----------------------------8--8--8--8--5--5--5--5--
E|--5--5--5--5--5--5--5--5--5--------------------------


BRIDGE

G|--------------------------------------------------------------------------------
D|--------------------------------------------------------------------------------
A|--3--3--3--3--3--3--3--3--3-----------------------------------------------------
E|-----------------------------3--3--3--3--3--3--3--3--3--5--5--5--5--5--5--5--5--

G|--------------------------------------------------------------------------------
D|--------------------------------------------------------------------------------
A|--3--3--3--3--3--3--3--3--3-----------------------------------------------------
E|-----------------------------3--3--3--3--3--3--3--3--3--5--5--5--5--5--5--5--5--

G|--------------------------------------------------------------------------------
D|--------------------------------------------------------------------------------
A|--3--3--3--3--3--3--3--3--3-----------------------------------------------------
E|-----------------------------3--3--3--3--3--3--3--3--3--5--5--5--5--5--5--5--5--

G|--------------------------------------------------------------------------------
D|--------------------------------------------------------------------------------
A|--3--3--3--3--3--3--3--3--3--5--5--5--5--5--5--5--5--5--7--7--7--7--7--7--7--7--
E|--------------------------------------------------------------------------------

CHORUS

G|--------------------------------------?YNEXOMENA
D|--------------------------------------
A|--------------------------------------
E|--5--5--5--5--5--5--5--5--5--5--5--5--

G|-----------
D|-----------
A|-----------
E|--5--3--1--

RIFF
VERSE
BRIDGE
CHORUS

SOLO

G|-----------------------------------------------------------------------??????????
D|-----------------------------------------------------------------------
A|--0--0--0--0-----------0--0--0--0-----------0--0--0--0-----0--0--0--0--
E|-----------------------------------------------------------------------

G|--------------????????????
D|--------------
A|-----3--------
E|--------3-----

SOLO RYTHM

G|-----------------------------------------------------------------------------
D|-----------------------------------------------------------------------------
A|--3--3--3--3--3--3--------------------5--5--5--5--5--5-----------------------
E|--------------------3--3--3--3--3--3--------------------5--5--5--5--5--5-----

BRIDGE 
CHORUS
tabs and chords, guitar tabs, music transcription, music technology, deep learning, music information retrieval, transcribe into tabs & chords, chordify, music renditions, songsterr, reverbnation, tabulature, bollywood chords, ultimate guitar, yousician, guitar lessons, acoustic guitar, electric guitar, guitar tuner, 911 tabs