Bass Tabs for Me Aburro

(/) Slide Up  (\) Slide Down  (h) Hammer On  (p) Pull Off  (b) Bend (r) Release (v) Vibrato (x) Muted

Tabs for Song : 
BPM : 350

intro 
G|--------------------------2-----1-----------------------------4-----3-----------------------------
D|--------------------------------------0-----------------------------------------------------------
A|--------------------------------------------------------------------------------------------------
E|--0-----------------------------------------------3-----------------------------------0-----3-----

G|--------------------------------------------------------------------------------------------------
D|--------------------------------------------------------------------------6-----------------------
A|--2-----------------------------0-----2-----4-----0-----------------------------------4-----------
E|--------------------------2-----------------------------------------------------------------------

estrofa
G|--------------------------------------------------------------------------------------------------
D|--------------------------------------------------------------------------------------------------
A|--------------------------------------------------------------------------------------------------
E|--0-----0-----0-----0-----0-----0-----0-----0-----3-----3-----3-----3-----3-----3-----3-----3-----

G|--------------------------------------------------------------------------------------------------
D|--------------------------------------------------------------------------------------------------
A|--2-----2-----2-----2-----2-----2-----2-----2-----0-----0-----0-----0-----0-----0-----0-----0-----
E|--------------------------------------------------------------------------------------------------


mis oidos se derriten

G|--------------------------------------------------------------------------------------------------
D|--------------------------------------------------------------------------------------------------
A|--------------------------------------------------------------------------------------------------
E|--3-----3-----3-----3-----3-----3-----3-----3-----7-----7-----7-----7-----7-----7-----7-----7-----

G|--------------------------------------------------------------------------------------------------
D|--------------------------------------------------------------------------------------------------
A|--------------------------------------------------------------------------------------------------
E|--5-----5-----5-----5-----5-----5-----5-----5-----5-----5-----5-----5-----5-----5-----5-----4-----


G|--------------------------------------------------------------------------------------------------
D|--------------------------------------------------------------------------------------------------
A|--------------------------------------------------------------------------------------------------
E|--3-----3-----3-----3-----3-----3-----3-----3-----7-----7-----7-----7-----7-----7-----7-----7-----

G|--------------------------------------------------------------------------------------------------
D|--------------------------------------------------------------------------------------------------
A|--------------------------------------------------------------------------------------------------
E|--5-----5-----5-----5-----5-----5-----5-----5-----5-----5-----5-----5-----5-----5-----5-----4-----

si me toca otra session de sobremesa grito como rock local que me agoto, me agobio

G|--------------------------------------------------------------------------------------------------
D|--------------2-----1-----------------------------------------------------------------------------
A|--------------------------------0-----------------------------------------------------------------
E|--2-----------------------------------------2-----------------------0-----2-----2-----------------

G|--------------------------------------5-----4-----------------------------------------------------
D|--------------------------4-----------------------------------------------------------------------
A|--2-----------------------------------------------------------------2-----2-----2-----2-----------
E|--------------------------------------------------------------------------------------------------

ME ABURRO !!!!
G|--------------------------------------------------------------------------------------------------
D|--------------------------------------------------------4--5--4-----------------------------------
A|--------------------------7-----5-----------------------------------------4--5--4-----------------
E|--------4--5--7-----------------------7-----5-----------------------------------------------5-----

G|--------------------------------------------------------------------------------------------------
D|--------------------------------------------------------4--5--4-----------------------------------
A|--------------------------7-----5-----------------------------------------4--5--4-----------------
E|--------4--5--7-----------------------7-----5-----------------------------------------------5-----

G|--------------------------------------------------------------------------------------------------
D|--------------------------------------------------------4--5--4-----------------------------------
A|--------------------------7-----5-----------------------------------------4--5--4-----------------
E|--------4--5--7-----------------------7-----5-----------------------------------------------5-----

G|--------------------------------------------------------------------------------------------------
D|--------------------------------------------------------4--5--4-----------------------------------
A|--------------------------7-----5-----------------------------------------4--5--4-----------------
E|--------4--5--7-----------------------7-----5-----------------------------------------------5-----
(post-coro, prueba tambien una octava mas arriba)
G|--------------------------------------------------------------------------------------------------
D|--------------------------------------------------------------------------------------------------
A|--------------------------------------------------------------------0-----------------4-----------
E|--3-----------------------2-----2-----3-----2-----------0-----------------------------------------

G|-----
D|-----
A|--2--
E|-----


tabs and chords, guitar tabs, music transcription, music technology, deep learning, music information retrieval, transcribe into tabs & chords, chordify, music renditions, songsterr, reverbnation, tabulature, bollywood chords, ultimate guitar, yousician, guitar lessons, acoustic guitar, electric guitar, guitar tuner, 911 tabs