Guitar Tabs for Alone

(/) Slide Up  (\) Slide Down  (h) Hammer On  (p) Pull Off  (b) Bend (r) Release (v) Vibrato (x) Muted

Tabs for Song : 
BPM : 200

 Song lyrics here 
D|---------------------------------------------------------------------------------------------------------------------------------------------------
A|--------------------------------------------------------------------------------------------------------------------------------------------------
F|--------------------------------------------------------------------------------------------------------------------------------8--8--8--8--------
C|--------------------------------------------------------------------------------------------------------------------------------------------------
G|--------------------------------------4--4--4--4--4--4--6--6--6--6--6--6--------------------------------------4--4--4--4--4--4--------------------
D|--4--4--4--4--4--4--1--1--1--1--1--1--------------------------------------4--4--4--4--4--4--1--1--1--1--1--1--------------------------------------

D|--------------------------------------------------------------------------------------------------------------------------------------------------
A|--------------------------------------------------------------------------------------------------------------------------------------------------
F|--------------------------------------------------------------------------------------------------------------------------------------------------
C|--------------------------------------------------------------------------------------------------------------------------------------------------
G|--------------------------------------4--4--4--4--4--4--6--6--6--6--6--6--------------------------------------4--4--4--4--4--4--6--6--6--6--6--6--
D|--4--4--4--4--4--4--1--1--1--1--1--1--------------------------------------4--4--4--4--4--4--1--1--1--1--1--1--------------------------------------

D|--------------------------------------------------------------------------------------------------------------------------------------------------
A|--------------------------------------------------------------------------------------------------------------------------------------------------
F|--------------------------------------------------------------------------------------------------------------------------------------------------
C|--------------------------------------------------------------------------------------------------------------------------------------------------
G|--------------------------------------4--4--4--4--4--4--6--6--6--6--6--6--------------------------------------4--4--4--4--4--4--6--6--6--6--6--6--
D|--4--4--4--4--4--4--1--1--1--1--1--1--------------------------------------4--4--4--4--4--4--1--1--1--1--1--1--------------------------------------

D|--------------------------------------------------------------------------------------------------------------------------------------------------
A|--------------------------------------------------------------------------------------------------------------------------------------------------
F|--------------------------------------------------------------------------------------------------------------------------------------------------
C|-----------------------------------------------------3--------------------------------------------------------------------------------------------
G|--------------------------------------4--4--4--4--4-----6--6--6--4--4--4--3--3--3--3--3--3--4--4--4--4--4--4--5--5--5--5--5--5--6--6--6--6--6--6--
D|--4--4--4--4--4--4--1--1--1--1--1--1--------------------------------------------------------------------------------------------------------------

D|--------------------------------------------------------------------------------------------------------------------------------------------------
A|--------------------------------------------------------------------------------------------------------------------------------------------------
F|--------------------------------------------------------------------------------------------------------------------------------------------------
C|-----------------------------------------------------3--------------------------------------------------------------------------------------------
G|--------------------------------------4--4--4--4--4-----6--6--6--4--4--4--3--3--3--3--3--3--4--4--4--4--4--4--5--5--5--5--5--5--6--6--6-----------
D|--4--4--4--4--4--4--1--1--1--1--1--1-----------------------------------------------------------------------------------------------------13-------

D|--------------------------------------------------------------------------------------------------------------------------------------------------
A|--------------------------------------------------------------------------------------------------------------------------------------------------
F|--------------------------------------------------------------------------------------------------------------------------------8--8--8--8--------
C|--------------------------------------------------------------------------------------------------------------------------------------------------
G|--------------------------------------4--4--4--4--4--4--6--6--6--6--6--6--------------------------------------4--4--4--4--4--4--------------------
D|--4--4--4--4--4--4--1--1--1--1--1--1--------------------------------------4--4--4--4--4--4--1--1--1--1--1--1--------------------------------------

D|--------------------------------------------------------------------------------------------------------------------------------------------------
A|--------------------------------------------------------------------------------------------------------------------------------------------------
F|--------------------------------------------------------------------------------------------------------------------------------------------------
C|--------------------------------------------------------------------------------------------------------------------------------------------------
G|--------------------------------------4--4--4--4--4--4--6--6--6--6--6--6--------------------------------------4--4--4--4--4--4--6--6--6--6--6--6--
D|--4--4--4--4--4--4--1--1--1--1--1--1--------------------------------------4--4--4--4--4--4--1--1--1--1--1--1--------------------------------------

D|--------------------------------------------------------------------------------------------------------------------------------------------------
A|--------------------------------------------------------------------------------------------------------------------------------------------------
F|--------------------------------------------------------------------------------------------------------------------------------------------------
C|--------------------------------------------------------------------------------------------------------------------------------------------------
G|--------------------------------------4--4--4--4--4--4--6--6--6--6--6--6--------------------------------------4--4--4--4--4--4--1--1--1--1--1--1--
D|--4--4--4--4--4--4--1--1--1--1--1--1--------------------------------------4--4--4--4--4--4--1--1--1--1--1--1--------------------------------------

D|--------------------------------------------------------------------------------------------------------------------------------------------------
A|--------------------------------------------------------------------------------------------------------------------------------------------------
F|--------------------------------------------------------------------------------------------------------------------------------------------------
C|-----------------------------------------------------3--------------------------------------------------------------------------------------------
G|--------------------------------------4--4--4--4--4-----6--6--6--4--4--4--3--3--3--3--3--3--4--4--4--4--4--4--5--5--5--5--5--5--6--6--6--6--6--6--
D|--4--4--4--4--4--4--1--1--1--1--1--1--------------------------------------------------------------------------------------------------------------

D|--------------------------------------------------------------------------------------------------------------------------------------------------
A|--------------------------------------------------------------------------------------------------------------------------------------------------
F|--------------------------------------------------------------------------------------------------------------------------------------------------
C|-----------------------------------------------------3--------------------------------------------------------------------------------------------
G|--------------------------------------4--4--4--4--4-----6--6--6--4--4--4--3--3--3--3--3--3--4--4--4--4--4--4--5--5--5--5--5--5--6--6--6--6--6--6--
D|--4--4--4--4--4--4--1--1--1--1--1--1--------------------------------------------------------------------------------------------------------------

D|--------------------------------------------------------------------------------------------------------------------------------------------------
A|--------------------------------------------------------------------------------------------------------------------------------------------------
F|--------------------------------------------------------------------------------------------------------------------------------------------------
C|--------------------------------------------------------------------------------------------------------------------------------------------------
G|--3--3--3--3--3--3--3--3--3--3--3--3--4--4--4--4--4--4--6--6--6--6--6--4--3--3--3--3--3--3--3--3--3--3--3--3--8--8--8--8--8--8--6--6--6--6--6--4--
D|--------------------------------------------------------------------------------------------------------------------------------------------------

D|--------------------------------------------------------------------------------------------------------------------------------------------------
A|--------------------------------------------------------------------------------------------------------------------------------------------------
F|--------------------------------------------------------------------------------------------------------------------------------------------------
C|--------------------------------------------------------------------------------------------------------------------------------------------------
G|--3--3--3--3--3--3--3--3--3--3--3--3--4--4--4--4--4--4--6--6--6--6--6--6--3--3--3--3--3--3--3--3--3--3--3--3--8--8--8--8--8--8--6--6--6--6--6--6--
D|--------------------------------------------------------------------------------------------------------------------------------------------------

D|--------------------------------------------------------------------------------------------------------------------------------------------------
A|--------------------------------------------------------------------------------------------------------------------------------------------------
F|--------------------------------------------------------------------------------------------------------------------------------------------------
C|--------------------------------------------------------------------------------------------------------------------------------------------------
G|--------------------------------------4--------4-----4--6--------6-----6--------------------------------------4--------4-----4--6-----------------
D|--4--------4-----4--1--------1-----1--------------------------------------4--------4-----4--1--------1-----1--------------------------------------

D|--------------------------------------------------------------------------------------------------------------------------------------------------
A|--------------------------------------------------------------------------------------------------------------------------------------------------
F|--------------------------------------------------------------------------------------------------------------------------------------------------
C|--------------------------------------------------------------------------------------------------------------------------------------------------
G|--------------------------------------4--4--4--4--4--4--6--6--6--6--6--6--------------------------------------4--4--4--4--4--4--6--6--6--6--6--6--
D|--4--4--4--4--4--4--1--1--1--1--1--1--------------------------------------4--4--4--4--4--4--1--1--1--1--1--1--------------------------------------

D|--------------------------------------------------------------------------------------------------------------------------------------------------
A|--------------------------------------------------------------------------------------------------------------------------------------------------
F|--------------------------------------------------------------------------------------------------------------------------------------------------
C|-----------------------------------------------------3--------------------------------------------------------------------------------------------
G|--------------------------------------4--4--4--4--4-----6--6--6--4--4--4--3--3--3--3--3--3--4--4--4--4--4--4--5--5--5--5--5--5--6--6--6--6--6--6--
D|--4--4--4--4--4--4--1--1--1--1--1--1--------------------------------------------------------------------------------------------------------------

D|--------------------------------------------------------------------------------------------------------------------------------------------------
A|--------------------------------------------------------------------------------------------------------------------------------------------------
F|--------------------------------------------------------------------------------------------------------------------------------------------------
C|-----------------------------------------------------3--------------------------------------------------------------------------------------------
G|--------------------------------------4--4--4--4--4-----6--6--6--4--4--4--3--3--3--3--3--3--4--4--4--4--4--4--5--5--5--5--5--5--6--6--6--6--6--6--
D|--4--4--4--4--4--4--1--1--1--1--1--1--------------------------------------------------------------------------------------------------------------

D|--------------------------------------------------------------------------------------------------------------------------------------------------
A|--------------------------------------------------------------------------------------------------------------------------------------------------
F|--------------------------------------------------------------------------------------------------------------------------------------------------
C|--------------------------------------------------------------------------------------------------------------------------------------------------
G|--------------------------------------4--4--4--4--4--4--6--6--6--6--6--6--------------------------------------4--4--4--4--4--4--6--6--6--6--6--6--
D|--4--4--4--4--4--4--1--1--1--1--1--1--------------------------------------4--4--4--4--4--4--1--1--1--1--1--1--------------------------------------

D|-----------------------------------------------------------------------------------------------------------------------------------------------------1
A|-----------------------------------------------------------------------------------------------------------------------------------------------------
F|--------------------------------------------------------------------------------------------------------------------------------8--8--8--8--8--8-----
C|-----------------------------------------------------------------------------------------------------------------------------------------------------
G|--------------------------------------4--4--4--4--4--4--6--6--6--6--6--6--------------------------------------4--4--4--4--4--4-----------------------
D|--4--4--4--4--4--4--1--1--1--1--1--1--------------------------------------4--4--4--4--4--4--1--1--1--1--1--1--------------------------------------4--

Song lyrics here 


Use manual mode to free up cursor. Paste any tab in acousterr tab maker and we'll play it !!!
tabs and chords, guitar tabs, music transcription, music technology, deep learning, music information retrieval, transcribe into tabs & chords, chordify, music renditions, songsterr, reverbnation, tabulature, bollywood chords, ultimate guitar, yousician, guitar lessons, acoustic guitar, electric guitar, guitar tuner, 911 tabs