Guitar Tabs for Mareez-e-Ishq - Arijit Singh Tabs

Tabs for Song : Mareez-e-Ishq 

Mareez-e-Ishq hoon main, kar de dawaa
E|--0---------------------------0h1--1--1--0-----
B|-----3--1---3\5--5--5---5\3--------------------
G|-----------------------------------------------
D|-----------------------------------------------
A|-----------------------------------------------
E|-----------------------------------------------

Mareez-e-Ishq hoon main, kar de dawaa..
E|--0---------------------------0h1--1--1--0--------------
B|-----3--1---3\5--5--5---5\3-----------------3--1--0-----
G|--------------------------------------------------------
D|--------------------------------------------------------
A|--------------------------------------------------------
E|--------------------------------------------------------

O o ho…
E|------------3\5--3--0--------------
B|-----1-----------------3--1--0-----
G|--2-----2--------------------------
D|-----------------------------------
A|-----------------------------------
E|-----------------------------------

O o ho…
E|------------3\5--3--0--------------
B|-----1-----------------3--1--0-----
G|--2-----2--------------------------
D|-----------------------------------
A|-----------------------------------
E|-----------------------------------

Talab hai tu, tu hai nasha
E|--------------------------------------------
B|-----0---------0h1--1---1h3--1--0-----0-----
G|--2-----2--2-----------------------2--------
D|--------------------------------------------
A|--------------------------------------------
E|--------------------------------------------

Ghulam hai dil ye tera
E|--------------------------------------------
B|-----0---------0h1--1---1h3--1--0-----0-----
G|--2-----2--2-----------------------2--------
D|--------------------------------------------
A|--------------------------------------------
E|--------------------------------------------

Khulke zara jee loon tujhe
E|--------------------------------------------
B|-----0---------0h1--1---1h3--1--0-----0-----
G|--2-----2--2-----------------------2--------
D|--------------------------------------------
A|--------------------------------------------
E|--------------------------------------------

Aaja meri saanson mein aa 
E|--------------------------------------
B|---0h1--0--------------1--------------
G|-----------2--2-----2-----2--0--0-----
D|--------------------------------------
A|--------------------------------------
E|--------------------------------------

Aaja meri saanson mein aa 
E|--------------------------------------
B|---0h1--0--------------1--------------
G|-----------2--2-----2-----2--0--0-----
D|--------------------------------------
A|--------------------------------------
E|--------------------------------------

Mareez-e-Ishq hoon, main kar de dawa
E|--0---------------------------0h1--1--1--0-----------------------------
B|-----3--1---3\5--5--5---5\3-----------------3--1-----0-----0-----0-----
G|--------------------------------------------------2-----2-----2--------
D|-----------------------------------------------------------------------
A|-----------------------------------------------------------------------
E|-----------------------------------------------------------------------

Haath rakh de tu dil pe zara
E|--------------------------------------
B|-----0---0h3-----1---0h1--0--0--------
G|--0-----------------------------2-----
D|--------------------------------------
A|--------------------------------------
E|--------------------------------------

haath rakh de tu dil pe zara
E|--------------------------------------
B|-----0---0h3-----1---0h1--0--0--------
G|--0-----------------------------2-----
D|--------------------------------------
A|--------------------------------------
E|--------------------------------------

Tujhe mere rab ne milaya
E|--------------------------------------
B|--------0-----------0---------0h3-----
G|--0--2-----0--0--2-----0--2-----------
D|--------------------------------------
A|--------------------------------------
E|--------------------------------------

Maine tujhe apna banaya
E|-----------------------------------
B|--------0-----------0-----0--------
G|--0--2-----0--0--2-----0-----2-----
D|-----------------------------------
A|-----------------------------------
E|-----------------------------------

Ab na bichadna Khudaya (x2)
E|--------------------------------------
B|--------0-----------0---------0h3-----
G|--0--2-----0--0--2-----0--2-----------
D|--------------------------------------
A|--------------------------------------
E|--------------------------------------

Mohabbat rooh ki hai laazim riza
E|--0---------------------------0h1--1--1--0-----------------------------
B|-----3--1---3\5--5--5---5\3-----------------3--1-----0-----0-----0-----
G|--------------------------------------------------2-----2-----2--------
D|-----------------------------------------------------------------------
A|-----------------------------------------------------------------------
E|-----------------------------------------------------------------------

Haath rakh de tu dil pe zara
E|--------------------------------------
B|-----0---0h3-----1---0h1--0--0--------
G|--0-----------------------------2-----
D|--------------------------------------
A|--------------------------------------
E|--------------------------------------

haath rakh de tu dil pe zara
E|--------------------------------------
B|-----0---0h3-----1---0h1--0--0--------
G|--0-----------------------------2-----
D|--------------------------------------
A|--------------------------------------
E|--------------------------------------
tabs and chords, guitar tabs, music transcription, music technology, deep learning, music information retrieval, transcribe into tabs & chords, chordify, music renditions, songsterr, reverbnation, tabulature, bollywood chords, ultimate guitar, yousician, guitar lessons, acoustic guitar, electric guitar, guitar tuner, 911 tabs