Guitar Tabs for Main Tenu Samjhawan Ki - Tabs

Tabs for Song : samjhawan

nahi jeena tere baajon,nahi jeena nhi jeena[4 times]

E|--------------------------------------------------
B|--4--4--3--1-----1--4-----4--6--4-----4--6--4-----
G|--------------3-----------------------------------
D|--------------------------------------------------
A|--------------------------------------------------
E|--------------------------------------------------

mein tenu samjhawan ki

E|--------------------------------------
B|--------------------------------------
G|--3--0--3--0--------------------------
D|--------------1--3-----3--5--3--1-----
A|--------------------------------------
E|--------------------------------------

na tere bina lagda jee

E|--------------------------------------
B|--------------------------------------
G|--3--0--3--0--------------------------
D|--------------1--3-----3--5--3--1-----
A|--------------------------------------
E|--------------------------------------
tu ki jaane pyaar mera

E|-----------------------------------------
B|--------------1-----1-----1--3-----------
G|--3--3--0--3-----3-----------------3-----
D|-----------------------------------------
A|-----------------------------------------
E|-----------------------------------------
mein karu intzaar tera

E|-----------------------------------1--------------
B|-----------4--3--1--1-----1--4--3-----3--1--------
G|--3--3--0-----------------------------------3-----
D|--------------------------------------------------
A|--------------------------------------------------
E|--------------------------------------------------
tu dil tuhio jaan meri

E|--------------1--------------------------
B|--------3--4-----4-----3--1--------------
G|--3--3--------------------------1--1--3--
D|-----------------------------------------
A|-----------------------------------------
E|-----------------------------------------


tabs and chords, guitar tabs, music contests, music covers, songsterr, reverbnation, renditions, tabulature, bollywood chords, ultimate guitar, yousician, guitar lessons, torrins, fender, gibson, acoustic guitar, electric guitar, youtube covers, gootar, guitar tuner, A-Z tabs, 911 tabs