Guitar Tabs for Main Rahoon Ya Na Rahoon Intro

E|-----------------------------------------
B|--6--8--10--8p6--6--6------6/8--8--------
G|-----------------------------------------
D|-----------------------------------------
A|-----------------------------------------
E|-----------------------------------------

E|--------------------------------------
B|--6--8--10--8p6--6--6-----------------
G|---------------------------5/7--7-----
D|--------------------------------------
A|--------------------------------------
E|--------------------------------------

E|-----------------------------------------
B|--6--8--10--8p6--6--6------6/8--8--------
G|-----------------------------------------
D|-----------------------------------------
A|-----------------------------------------
E|-----------------------------------------

E|--------------------------------------
B|--8--6------------------8/10----8-----
G|--------7--5---5/7------7/9-----7-----
D|--------------------------------------
A|--------------------------------------
E|--------------------------------------
tabs and chords, guitar tabs, music transcription, music technology, deep learning, music information retrieval, transcribe into tabs & chords, chordify, music renditions, songsterr, reverbnation, tabulature, bollywood chords, ultimate guitar, yousician, guitar lessons, acoustic guitar, electric guitar, guitar tuner, 911 tabs