Guitar Tabs for Chahun Main Ya Na - Ashiqui 2 Tabs

(/) Slide Up  (\) Slide Down  (h) Hammer On  (p) Pull Off  (b) Bend (r) Release (v) Vibrato

Tabs for Song : 

 Tuhi Ye Mujhko Bata de Chahun Main Ya na
E|--------------------------------------------------
B|-----13-12-13-12-10-10/12-12/10/8---8h10/12-10-10-
G|--9-----------------------------------------------
D|--------------------------------------------------
A|--------------------------------------------------
E|--------------------------------------------------

 Apne Tu Dil Ka pata de Chahun Main ya na
E|--------------------------------------------------
B|-----13-12-13-12-10-10/12-12/10/8---8h10/12-10-10-
G|--9-----------------------------------------------
D|--------------------------------------------------
A|--------------------------------------------------
E|--------------------------------------------------

Tuhi Ye Muhhko Bata de Chahun Main ya na
E|--------------------------------------------------
B|-----13-12-13-12-10-10/12-12/10/8---8h10/12-10-10-
G|--9-----------------------------------------------
D|--------------------------------------------------
A|--------------------------------------------------
E|--------------------------------------------------
 
Apne tu dil ka pata deeeeee chahun main yaaaa naaa
E|-----------------------------------------------------
B|-----13-12-13-12-10-12/15-15/12/10/8---8h10/12-10-10-
G|--9--------------------------------------------------
D|-----------------------------------------------------
A|-----------------------------------------------------
E|-----------------------------------------------------

itna bata dun tujhko chahta pe apni mujhko yuhin nahi ikhtiyaar
E|--10/12-12-10-12-10-10-10-10-10-8--10-8--8--8--8--8--7--8--7-----8--7--
B|--------------------------------------------------------------10-------
G|-----------------------------------------------------------------------
D|-----------------------------------------------------------------------
A|-----------------------------------------------------------------------
E|-----------------------------------------------------------------------

phir bi ye socha dil ne ab jo laga hoon milne puchun tujhe ik baar ooooooooooo
E|--10/12-12-10-12-10-10-10-10-10-8--10-8--8--8--8--8--7--8--7-----8--7--7--------
B|--------------------------------------------------------------10----------10-9--
G|--------------------------------------------------------------------------------
D|--------------------------------------------------------------------------------
A|--------------------------------------------------------------------------------
E|--------------------------------------------------------------------------------

same again repeat from the first line.....thankyou!!!!





---







Now supports capo and sound effects for vibrato/pull-off/hammer/bends etc !!! Checkout help section
tabs and chords, guitar tabs, music transcription, music technology, deep learning, music information retrieval, transcribe into tabs & chords, chordify, music renditions, songsterr, reverbnation, tabulature, bollywood chords, ultimate guitar, yousician, guitar lessons, acoustic guitar, electric guitar, guitar tuner, 911 tabs