Guitar Tabs for Eraserheads - Magasin (solo)

Guitar 1

E|-----------------------------------------------------------15-17-17-17-17-19-15----------15----16----------16----
B|--17-17-17-18-15-15-15-15-17-15-13-15-17-17-17-17-15-17-18----------------------17----17----17----17----17----17-
G|-----------------------------------------------------------------------------------17----------------17----------
D|-----------------------------------------------------------------------------------------------------------------
A|-----------------------------------------------------------------------------------------------------------------
E|-----------------------------------------------------------------------------------------------------------------

E|--17----------17-19-20-16-------
B|-----17----17-------------18----
G|--------17----------------------
D|--------------------------------
A|--------------------------------
E|--------------------------------

Guitar 2
E|-----------------------------------------------------------12-13-13-13-13-15-12----------12----12----------12----
B|--13-13-13-15-12-12-12-12-13-12-10-12-13-13-13-13-12-13-15----------------------13----13----13----13----13----13-
G|-----------------------------------------------------------------------------------12----------------13----------
D|-----------------------------------------------------------------------------------------------------------------
A|-----------------------------------------------------------------------------------------------------------------
E|-----------------------------------------------------------------------------------------------------------------

E|--12----------12-15-16-13-------
B|-----13----13-------------13----
G|--------14----------------------
D|--------------------------------
A|--------------------------------
E|--------------------------------

Guitar Tabs for Eraserheads - Magasin (solo)



E|-----------------------------------------------------------13-14-14-14-14-16-13----------13----13----------13----13----------13-15-17-13----
B|--14-14-14-16-13-13-13-13-14-13-11-13-14-14-14-14-13-14-16----------------------14----14----14----14----14----14----14----14-------------14-
G|-----------------------------------------------------------------------------------13----------------14----------------15-------------------
D|--------------------------------------------------------------------------------------------------------------------------------------------
A|--------------------------------------------------------------------------------------------------------------------------------------------
E|--------------------------------------------------------------------------------------------------------------------------------------------


E|--
B|--
G|--
D|--
A|--
E|--




tabs and chords, guitar tabs, music transcription, music technology, deep learning, music information retrieval, transcribe into tabs & chords, chordify, music renditions, songsterr, reverbnation, tabulature, bollywood chords, ultimate guitar, yousician, guitar lessons, acoustic guitar, electric guitar, guitar tuner, 911 tabs