Bass Tabs for Lp_2

(/) Slide Up  (\) Slide Down  (h) Hammer On  (p) Pull Off  (b) Bend (r) Release (v) Vibrato (x) Muted


Scales practice: Try and identify each note in the scale as you are playing it.

A major scale (extended):

G|-----------------------------6--7--9-----9--7--6-----------------------------
D|--------------------6--7--9-----------------------9--7--6--------------------
A|-----------5--7--9-----------------------------------------9--7--5-----------
E|--5--7--9-----------------------------------------------------------9--7--5--

G Major Scale

G|-----------------------------------------------------
D|-----------------2--4--5-----5--4--2-----------------
A|--------2--3--5-----------------------5--3--2--------
E|--3--5-----------------------------------------5--3--

C Major Scale
G|-----------------2--4--5-----5--4--2-----------------
D|--------2--3--5-----------------------5--3--2--------
A|--3--5-----------------------------------------5--3--
E|-----------------------------------------------------

C# Major Scale (extended)
G|-----------------------------10-11-13----13-11-10----------------------------
D|--------------------10-11-13----------------------13-11-10-------------------
A|-----------9--11-13----------------------------------------13-11-9-----------
E|--9--11-13----------------------------------------------------------13-11-9--


Octave exercise #1: Play with metronome, increase speed.

G|-----------------------------------------------------------------------------------------------------------
D|-----2--------4--------6--------7--------9--------12-------14-------14----12----9-----7-----6-----4-----2--
A|-----------------------------------------------------------------------------------------------------------
E|--0--------2--------4--------5--------7--------10-------12-------12----10----7-----5-----4-----2-----0-----
Octave exercise #2:

G|-----4--------7--------9--------14-------12----------------------------------9--------14-
D|--------------------------------------------------7--------5--------2--------------------
A|--2--------5--------7--------12-------10----------------------------------7--------12----
E|-----------------------------------------------5--------3--------0-----------------------

Switching Chorus/Verse/Break Exercise: Increase tempo with metronome for practice.
Verse:

G|--------------------------------------------------------------------------------------------------------------
D|--------------------------------------------------------------------------------------------------------------
A|--0-----4--4-----5-----0-----0-----4--4-----5-----0-----0-----4--4-----5-----0-----0-----4--4-----5-----0-----
E|--------------------------------------------------------------------------------------------------------------
Chorus:

G|--------------------------------------------
D|--------------------------------------------
A|--0--4--5-----0--4--5-----0--4--5-----5--5--
E|--------------------------------------------


Break:

G|-----------------------------------------------
D|--7--6--4--2--------------7--6--4--2-----------
A|--------------5--5--0--------------------5--5--0--
E|--------------------------------------------------


Working in 7/8

G|-----------------------------------------------
D|-----------------------------------------------
A|-----------4--5--7-----------4--5--7-----------
E|--5--5--------------5--5--------------5--5-----

    1 2 3 4 5  6  7   1  2 3 4 5  6  7  

tabs and chords, guitar tabs, music transcription, music technology, deep learning, music information retrieval, transcribe into tabs & chords, chordify, music renditions, songsterr, reverbnation, tabulature, bollywood chords, ultimate guitar, yousician, guitar lessons, acoustic guitar, electric guitar, guitar tuner, 911 tabs