Guitar Tabs for Love Scenario

(/) Slide Up  (\) Slide Down  (h) Hammer On  (p) Pull Off  (b) Bend (r) Release (v) Vibrato (x) Muted

Tabs for Song : 

Song lyrics here
E|--------------------------------------------------------------------------------------------x--------------------x--
B|--0---------0p3-----0--------0--------0-----------------------0--------0--------------0--3--x-----0--------0-----x--
G|-----2--0---0p---------2--0-----2--------2--0--2--2--0--2--0-----0--------2--0--2--0--0--0--x--------2--0-----2--x--
D|-----------------------------0-----0-----0--------------------------2--0--------2-----------x--------------0-----x--
A|------------3p---3-----3-----------------------2-----2--------2-----------------------3-----x--3-----3-----------x--
E|--------------------------------------------------------------------------------------------x--------------------x--

E|--------------------x--------------------x-----------------0-----------------------x--------x-----0-----------------
B|-----0--------------x-----------0--------x--0--------------1--3--0-----------0-----x--------x--------3--0-----------
G|--------2--0--2--2--x--0--2--0-----0-----x-----2--0--0--0--0--0--0-----2--0-----2--x-----0--x--0-----------2--0--2--
D|--0-----0-----------x-----------------2--x--------0--------2--------2--------0-----x--0-----x--------------------2--
A|--------------2-----x--2--------2--------x-----------------3-----3-----------------x--------x-----2--2--2--2--------
E|--------------------x--------------------x-----------------------------------------x--------x-----------------------

E|-----x--------------0--3--0------0p3--0-----x--------x-----0--------------------x-----------
B|-----x--------------1--0--1--------------3--x--------x--------3--0--------------x--------0--
G|--0--x-----0--0--0--0-----0--0-----------2--x-----0--x--0-----------2--0--2--0--x-----0--0--
D|-----x--2-----0-----2-----2-----------0-----x--0-----x--------------------2-----x--2--------
A|-----x--------------3--3--3------3p---------x--------x-----2--2--2--2-----------x--------2--
E|-----x--------------------------------------x--------x--------------------------x-----------

Song lyrics here
E|--
B|--
G|--
D|--
A|--
E|--

Paste any tab in acousterr's tab maker and we'll play it !!!
Now supports capo and sound effects for vibrato/pull-off/hammer/bends/mutes etc !!! Checkout help section
tabs and chords, guitar tabs, music transcription, music technology, deep learning, music information retrieval, transcribe into tabs & chords, chordify, music renditions, songsterr, reverbnation, tabulature, bollywood chords, ultimate guitar, yousician, guitar lessons, acoustic guitar, electric guitar, guitar tuner, 911 tabs