Long Train Runnin' (doobie Brothers) - Bass Tabs

(/) Slide Up  (\) Slide Down  (h) Hammer On  (p) Pull Off  (b) Bend (r) Release (v) Vibrato (x) Muted

Tabs for Song : 
BPM : 200

INTRO: wait 3 measures, then: 
G|--0--3--0-----------------------------
D|-----------3--------0--3-----0--------
A|-----------------3--------------3--1--
E|--------------------------------------(3)

VERSE:  x4
G|----------------------     ---------     --------
D|-------------3----0h5-  o  -3-0-4-5-  o  --3-4-5-
A|-------3--5-----------  r  ---------  r  --------
E|--3-------------------     ---------     --------

REFRAIN:
G|-----------------------------------------------
D|-----------------------------------------------
A|--3--------3--3--------2--3--------3-(3)-4--5--
E|--------3-----------3-----------3--------------

REFRAIN cont.
G|-----------------------------------------------
D|-----------------------------------------------  0
A|--6--------6--6-------(6)--5-------5--5-----5--   310
E|--------6-----------6-----------5--------5-----

BRIDGE:  1st & 2nd time
G|--------------------      |-----------------------
D|--------------3--5--  x   |------------3h5--------
A|--------------------  3   |-----------------5--3--
E|--3-----------------      |--3--------------------

BRIDGE:  3rd time
G|-------------------------      |----------------------
D|-------------------------  x   |----------------------
A|-------------------------  3   |--------------0--1--2-
E|--3--3b3--3b3--3b-3b3--2b      |--3--3b3--3b3---------

REFRAIN ENDING 3rd TIME  +  INTRO  +  VERSE w/ vamp
G|-----------------------
D|-----------------------
A|--6--------5--5-----3--
E|-----------------------



G|--
D|--
A|--
E|--


Use manual mode to free up cursor. Paste any tab in acousterr tab maker and we'll play it !!!

About Long Train Runnin' : "Long Train Runnin'" is a song recorded by The Doobie Brothers . It was included on the band's 1973 album The Captain and Me . It became a top 10 hit on the US Billboard Hot 100 . In 1993 the Doobie Brothers version was remixed and charted again in several countries . It was covered by Italian band Traks in 1982 and then by English girl group Bananar The song evolved from an untitled and mostly ad-libbed jam . Its working title was "Rosie Pig Moseley" and later "Osborn" It was released in 1973. It was released as part of album The Captain and Me. The genre is country rock. The track was release in 1973. Long Train Runnin' has a significant contribution from artist(s) Tom Johnston. It is related to the album(s) - The Captain and Me. The track has an affiliation to the band(s) - The Doobie Brothers.

About The Doobie Brothers : The Doobie Brothers are an American rock band from San Jose, California. The band's history can be roughly divided into three eras . From 1970 to 1975 it featured lead vocalist Johnston and mainstream rock and roll sound with elements of folk, country and R&B . Johnston left the group in 1977 due to health reasons . John Hartman and Tom Johnston formed nucleus of what would become Doobie Brothers . Spence introduced Hartman to singer, guitarist and songwriter Tom Johnston . Their music is influenced by genres - rock soft rock pop blue-eyed soul.

About The Captain and Me : The Captain and Me is the third studio album by American rock band The Doobie Brothers . The album is certified 2× Platinum by the RIAA . It features some of their most popular hits including "Long Train Runnin' and "Without You It was voted number 835 in the third edition of Colin Larkin's All Time Top 1000 Albums (2000). There was pressure on the band to move quickly and to save time they began reworking old tunes . One of Tom Johnston's songs, "Osborn", had been an improvisational piece that the band played live . The Captain and Me's most popular songs include Long Train Runnin',China Grove,Without You. It had an affiliation to bands - The Doobie Brothers. Its music is influenced by genres - rock.

tabs and chords, guitar tabs, music transcription, music technology, deep learning, music information retrieval, transcribe into tabs & chords, chordify, music renditions, songsterr, reverbnation, tabulature, bollywood chords, ultimate guitar, yousician, guitar lessons, acoustic guitar, electric guitar, guitar tuner, 911 tabs