Bass Tabs for Listen To The Music (doobie Brothers)

(/) Slide Up  (\) Slide Down  (h) Hammer On  (p) Pull Off  (b) Bend (r) Release (v) Vibrato (x) Muted

4-String Bass Tabs for "Listen To The Music" by The Doobie Brothers

    INTRO: wait 2 measures, then this, then half of a VERSE
G|------------8h9-----------------------
D|---7h9--------------------------------
A|--------7--------------7-----------5-- (7)
E|--------------------------5--6--7-----

<1> VERSE:
G|------------------------------------|
D|-----------------------------------o|  x
A|--7--------------7--7--------------o|  4
E|--------7-----7-----------7--x--7---|

    VERSE cont.
G|--------------------------------------------------------------------
D|--------------------------------------------------------------------
A|-7------------7--7--6----4------------4----4---2-----------2-----2-- (0)
E|------7----7------------------4----4-----4---4------2----2-----2--2-

<2> VERSE cont, then repeat from <1>
G|--------------------------------------------------------------
D|--------------------------------------------------7--7--8--9--
A|--0-----0--2-----4--4-----4--5-----5--7-----7--9--9----------- (7)
E|--------------------------------------------------------------

    Alt. VERSE, then VERSE cont from <2> above
G|-------------------------------------------------------------------------------
D|--------------------------------------------------4--6-------------------------
A|-7------------7--7--6--6--4----4--6----6--7----7--------2----------2--2----2--- (0)
E|------7----7-------------------------------------------------2--2--------2---2-

<3> REFRAIN
G|-------------------------------------------------------|
D|------------------------------------------------------o|  x
A|--4--4--------4-----4--------------------4--5--6--7---o|  3
E|--------4--4-----4-----4--5-----5--7-------------------|

    REFRAIN cont. then 3/4 of a VERSE
G|-----------------------------------------------------------------------
D|--4--4--------4---4--6--7--7--6--6--4--4-------------------------------
A|--------4--4----4------------------------7--7--5--5--4--4--------4----- (7)
E|-----------------------------------------------------------7--7-----7--

    REFRAIN cont. then about 8 measure break for BRIDGE
G|-----------------------------------------------------
D|-----------------------------------------------------
A|--7--------------4-----4-----7-----------7--7-----7--
E|-----4--5--7--7-----7--------------7--7--------7-----
 
  
  
G|--
D|--
A|--
E|--


Use manual mode to free up cursor. Paste any tab in acousterr tab maker and we'll play it !!!
tabs and chords, guitar tabs, music transcription, music technology, deep learning, music information retrieval, transcribe into tabs & chords, chordify, music renditions, songsterr, reverbnation, tabulature, bollywood chords, ultimate guitar, yousician, guitar lessons, acoustic guitar, electric guitar, guitar tuner, 911 tabs