Guitar Tabs for Lmao

(/) Slide Up  (\) Slide Down  (h) Hammer On  (p) Pull Off  (b) Bend (r) Release (v) Vibrato

Tabs for Song : 

Song lyrics here


E|--------------------------------------------------------------------------------------
B|--------------------10-------------------9--------------------7--------------------9--
G|-----9--9--9-----9--------9--9--9-----9--------9--9--9-----9--------9--9--9-----9-----
D|--7-----------7--------7-----------7--------7-----------7--------7-----------7--------
A|--------------------------------------------------------------------------------------
E|-----------------------------------------------------------------------------------------

E|-----------------------------------------------------------------------------------------------------------
B|--------------------10-------------------9--------------------7--------------------9-----9--12v---12--9--10-
G|-----9--9--9-----9--------9--9--9-----9--------9--9--9-----9--------9--9--9-----9-----9--------------------
D|--7-----------7--------7-----------7--------7-----------7--------7-----------7-----------------------------
A|-----------------------------------------------------------------------------------------------------------
E|-----------------------------------------------------------------------------------------------------------




Now supports capo and sound effects for vibrato/pull-off/hammer/bends etc !!! Checkout help section

E|-----------------------------------------------------------------------------------
B|-----------------------9--------------------------9--------------------------9-----
G|--9-----9--9-----9--9-----9--7-----7--7-----7--9-----9--------------------9-----9--
D|--9-----9--9-----9-----------7-----7--7-----7-----------9-----9--9-----9-----------
A|--7-----7--7-----7-----------5-----5--5-----5-----------9-----9--9-----9-----------
E|--------------------------------------------------------7-----7--7-----7-----------


E|-----------------------------------------------------------------------------------------
B|-----------------------9--------------------------9--------------------------------------
G|--9-----9--9-----9--9-----9--7-----7--7-----7--9-----9-----------------------------------
D|--9-----9--9-----9-----------7-----7--7-----7-----------9-----9--9-----9--9--9--9--9--7--
A|--7-----7--7-----7-----------5-----5--5-----5-----------9-----9--9-----9--9--9--9--9--7--
E|--------------------------------------------------------7-----7--7-----7--7--7--7--7--5--


Song lyrics here
E|--------------------------------------------------------------------------------------
B|--------------------10-------------------9--------------------7--------------------9--
G|-----9--9--9-----9--------9--9--9-----9--------9--9--9-----9--------9--9--9-----9-----
D|--7-----------7--------7-----------7--------7-----------7--------7-----------7--------
A|--------------------------------------------------------------------------------------
E|--------------------------------------------------------------------------------------

E|------------------------------------------------------------------------------------------------------------
B|--------------------10-------------------9--------------------7--------------------9-----9--12v---12--9-10v-
G|-----9--9--9-----9--------9--9--9-----9--------9--9--9-----9--------9--9--9-----9-----9---------------------
D|--7-----------7--------7-----------7--------7-----------7--------7-----------7------------------------------
A|------------------------------------------------------------------------------------------------------------
E|------------------------------------------------------------------------------------------------------------





tabs and chords, guitar tabs, music contests, music covers, songsterr, reverbnation, renditions, tabulature, bollywood chords, ultimate guitar, yousician, guitar lessons, torrins, fender, gibson, acoustic guitar, electric guitar, youtube covers, gootar, guitar tuner, A-Z tabs, 911 tabs