Guitar Tabs for Let It Go - Frozen Intro

Capo on 1st fret


e|---2h3-----2-----3------2h3-----3-----2---------0h2-----0-----2--------------------------
B|--------0--------------------0-----------------------0-----------------3-----1-----------
G|-----------------------------------------------------------------------------------------
D|---2--------------------------------------------0----------------------------------------
A|------------------------3----------------------------------------------3-----------------
E|-----------------------------------------------------------------------------------------

e|---2h3-----2-----3------3p2-----3-----2---------0h2-----0-----2--------------------------
B|--------0--------------------0-----------------------------------------3-----1-----------
G|-----------------------------------------------------2-----------------------------------
D|---2--------------------------------------------0----------------------------------------
A|------------------------3----------------------------------------------3-----------------
E|-----------------------------------------------------------------------------------------

tabs and chords, guitar tabs, music transcription, music technology, deep learning, music information retrieval, transcribe into tabs & chords, chordify, music renditions, songsterr, reverbnation, tabulature, bollywood chords, ultimate guitar, yousician, guitar lessons, acoustic guitar, electric guitar, guitar tuner, 911 tabs