Guitar Tabs for Let It Go

Tabs for Song : Let it Go by James Bay
Capo on the 6th fret

Based on Dave Tran's Tutorial at guitarzero2hero.com

Intro/Verse/Post Chorus

E|--------------------------------------------------
B|--0-----0-----0-----5-----5-----5-----5-----5-----
G|-----0-----0-----0-----0-----0-----0-----0-----0--
D|--------------------------------------------------
A|--------------------3-----------------------------
E|--3-----------------------------------------------

E|--------------------------------------------------
B|--0-----0-----0-----3-----3-----3-----1-----0-----
G|-----0-----0-----0-----0-----0-----0-----0-----0--
D|--------------------------------------------------
A|--------------------3-----------------3-----3-----
E|--0-----------------------------------------------

E|--------------------------------------------------
B|--0-----0-----0-----5-----5-----5-----5-----5-----
G|-----0-----0-----0-----0-----0-----0-----0-----0--
D|--------------------------------------------------
A|--------------------3-----------------------------
E|--3-----------------------------------------------

E|--------------------------------------------------
B|--0-----0-----0-----------------------------------
G|-----0-----0-----0--2-----2-----2-----2-----2-----
D|-----------------------0-----0-----0-----0-----0--
A|--------------------3-----------------------------
E|--0-----------------------------------------------

Pre Chorus

E|--------------------------------------------------
B|--------------------------------------------------
G|--4-----4-----4-----4-----4-----4-----4-----4-----
D|-----5-----5-----5-----5-----5-----5-----5-----5--
A|--7-----------------6-----------------------------
E|--------------------------------------------------

E|--------------------------------------------------
B|--------------------------------------------------
G|--4-----4-----4-----4-----4-----4-----4-----4-----
D|-----5-----5-----5-----5-----5-----5-----5-----5--
A|--5-----------------4-----------------------------
E|--------------------------------------------------

E|--------------------------------------------------
B|--------------------------------------------------
G|--4-----4-----4-----4-----4-----4-----4-----4-----
D|-----5-----5-----5-----5-----5-----5-----5-----5--
A|--7-----------------6-----------------------------
E|--------------------------------------------------

E|--------------------------------------------------
B|--------------------------------------------------
G|--4-----4-----4-----4-----------------------------
D|-----5-----5-----5--------------------------------
A|--5-----------------------------------------------
E|--------------------------------------------------

Chorus

E|--------------------------------------------------
B|--5-----5-----5-----0-----0-----0-----0-----0-----
G|-----0-----0-----0-----0-----0-----0-----0-----0--
D|--------------------------------------------------
A|--3-----------------------------------------------
E|--------------------3-----------------------------

E|--------------------------------------------------
B|--0-----0-----0-----------------------------------
G|-----0-----0-----0--2-----2-----2-----2-----2-----
D|-----------------------0-----0-----0-----0-----0--
A|--------------------------------------------------
E|--0-----------------0-----------------------------

E|--------------------------------------------------
B|--------------------------------------------------
G|--5-----5-----5-----0-----0-----0-----0-----0-----
D|-----5-----5-----5-----0-----0-----0-----0-----0--
A|--3-----------------------------------------------
E|--------------------3-----------------------------

E|--------------------------------------------------
B|--------------------------------------------------
G|--2-----2-----2-----2-----2-----2-----2-----2-----
D|-----0-----0-----0-----0-----0-----0-----0-----0--
A|--0-----------------------------------------------
E|--------------------------------------------------

Bridge

E|--------------------------------------------------
B|--------------------------------------------------
G|--5-----5-----5-----5-----5-----5-----5-----5-----
D|-----5-----5-----5-----5-----5-----5-----5-----5--
A|--3-----------------------------------------------
E|--------------------------------------------------

E|--------------------------------------------------
B|--------------------------------------------------
G|--0-----0-----0-----0-----0-----0-----0-----0-----
D|-----0-----0-----0-----0-----0-----0-----0-----0--
A|--------------------------------------------------
E|--3-----------------------------------------------

E|--------------------------------------------------
B|--------------------------------------------------
G|--0-----0-----0-----0-----0-----0-----0-----0-----
D|-----4-----4-----4-----4-----4-----4-----4-----4--
A|--5-----------------------------------------------
E|--------------------------------------------------

E|--------------------------------------------------
B|--------------------------------------------------
G|--0-----0-----0-----0-----0-----0-----0-----0-----
D|-----2-----2-----2-----2-----2-----2-----2-----2--
A|--0-----------------------------------------------
E|--------------------------------------------------


Paste any tab in acousterr's tab maker and we'll play it !!!
Now supports capo and sound effects for vibrato/pull-off/hammer/bends/mutes etc !!! Checkout help section
tabs and chords, guitar tabs, music transcription, music technology, deep learning, music information retrieval, transcribe into tabs & chords, chordify, music renditions, songsterr, reverbnation, tabulature, bollywood chords, ultimate guitar, yousician, guitar lessons, acoustic guitar, electric guitar, guitar tuner, 911 tabs