Guitar Tabs for Let It Go - Frozen

[Intro]
e|--3--4-----3--4-----3--4-----4--3-----1--3-----1--3-----------------
B|--------------------------------------------------------4--2--------
G|--------5-----------------5--------3--------3--------3--------------
D|--------------------------------------------------------------------
A|--------------------------------------------------------------------
E|--------------------------------------------------------------------

e|--3--3-----3--4-----3--4-----4--3-----1--3-----1--3-----------------
B|--------------------------------------------------------4-----3-----
G|--------5-----------------5--------3--------3--------3--------3-----
D|--------------------------------------------------------------------
A|--------------------------------------------------------------------
E|--------------------------------------------------------------------

[Verse]
e|--------------------------------------------------------------
B|--------------------------------------------------------------
G|--------------------------------------------------------------
D|--------------------------------------------------------------
A|--1--3--3--3--3--3--3--1--------------1--1--1-----------------
E|--------------------------4--4-----4-----------4--3--1--------

The snow glows white on the mountain tonight, Not a footprint to be seen
e|--------------------------------------------------------
B|--------------------------------------------------------
G|--------------------------------------------------------
D|--------------------------------------------------------
A|-----1--3--3--3--6--6--3-----3-----1--1--3--1--1--------
E|--1-----------------------------4-----------------------

A kingdom of isolation, And it looks like I'm the Queen
e|-----------------------------------------------------------------------------------
B|-----------------------------------------------------------------------------------
G|-----------------------------------------------------------------------------------
D|--------1--3--1-----1-----1--1-----------------------------------------------------
A|--3--3-----------3--------------4--3--4--3-----3--3--1-----1-----3--3--1-----------
E|--------------------------------------------------------4-----------------4--1-----

The wind is howling like this swirling storm inside, Couldn't keep it in - heaven knows I tried
e|--------------------------------------------------------------
B|--------------------------------------------------------------
G|-----------------------------------------------0--1--0--0-----
D|--------1--1--------3--3-----3--1--3--3-----3-----------------
A|--1--1--------1--1-----------------------1--------------------
E|--------------------------------------------------------------

Don't let them in don't let them see, Be the good girl you always have to be
e|--------------------------------------------------------------
B|--------------------------------------------------------------
G|-----------------------------------0---1v---------------------
D|--------1--1--------3---3v---1--3-----------------------------
A|--1--1--------1--1--------------------------------------------
E|--------------------------------------------------------------

Conceal don't feel, Don't let them know, Well now them know

[Chorus]
e|--------------------------------------------------------------------------------
B|--------------------------------------------------------------------------------
G|-----0--1-----------3--------------------0--1--------0--1--------5--5--3--------
D|--3-----------1--1--------6--3--3--3--3-----------3-----------1-----------------
A|--------------------------------------------------------------------------------
E|--------------------------------------------------------------------------------

Let it go let it go, can't hold it back anymore, Let it go let it go
e|--------------------------------------------------------------------------
B|--------1--1--2--1--------------------4-----------------4--4--------------
G|--1--3-----------------3--1--3--1--------5--3-----1--1--------5--1--------
D|--------------------------------------------------------------------------
A|--------------------------------------------------------------------------
E|--------------------------------------------------------------------------

Turn away and slam the door, I don't care what they're going to say
e|-----------------------------------------------------------
B|-----------------------------------------------------------
G|--1--1--0--------------------------------------------------
D|-----------1--1--------------------------------------------
A|--------------------------4--4--3--4--3--4--4--3-----------
E|-----------------------4--------------------------4--------

Let the storm rage on, the cold never bothered me anyway
e|--4-----4--------------------4--6-----------6--4--3--4-----
B|-----------5--------------4--------4-----4-----------------
G|--6-----6--------------1--------------3--------------------
D|-----------------1-----------------------------------------
A|--------------3--------------------------------------------
E|-----------------------------------------------------------

[Verse]
e|--------------------------------------------------------
B|--------------------------------------------------------
G|--------------------------------------------------------
D|--------------------------------------------------------
A|--1--3--3--3--3--3--------------6--6--4--4--3--1--------
E|--------------------4-----4-----------------------------

It's funny how some distance, Makes everything seem small
e|-----------------------------------------------------
B|-----------------------------------------------------
G|--------------------------------1--1-----------------
D|-----------------1--3--1-----1--------5--3---3v------
A|--------3--3--3--------------------------------------
E|--6--4-----------------------------------------------

And the fears that once controlled me, Can't get to me at all
e|--------------------------------------------------------
B|--------------------------------------------------------
G|-----------------------------------------0--1--3--------
D|--------1--1--------1--3-----1--3--1--3-----------1-----
A|--1--1--------1--1--------------------------------------
E|--------------------------------------------------------

It's time to see what I can do, To test the limits and break through
e|--------------------------------------
B|--------------------------------------
G|-----------------------------0---1v---
D|--------1--1-----1------3v------------
A|--1--1--------1-----1-----------------
E|--------------------------------------

No right no wrong no rules for me, I'm free

[Chorus]
e|-----------------------------------------------------------
B|-----------------------------------------------------------
G|-----0--1--------3-----1-----------------0--1--3--0--------
D|--3--------1--1-----------3--3--3--3--3--------------------
A|-----------------------------------------------------------
E|-----------------------------------------------------------

Let it go let it go, I am one with the wind and sky
e|-----------------------------------------------------------
B|-----------------------------1--1--2--1--------------------
G|-----0--1-----5--5--3-----1--------------3--1--3--1--------
D|--3--------1-----------------------------------------------
A|-----------------------------------------------------------
E|-----------------------------------------------------------

Let it go let it go, You'll never see me cry
e|-----------------------------------------------------------
B|--4--------------4-----------------------------------------
G|-----5--3-----1-----5--1-----1--1-----0--------------------
D|-----------------------------------------1---1v------------
A|-----------------------------------------------------------
E|-----------------------------------------------------------

Here I stand, And here I'll stay, Let the storm rage on

[Bridge]
e|--------------------------------------------------------------------
B|--------------------------------------------------------------------
G|--3--4--5-----6-----------4--3--1-----------------------------------
D|-----------------4--6--4-----------4-----2--4--6--3--4--6-----------
A|-----------------------------------------------------------2--3-----
E|--------------------------------------------------------------------

e|--9-----------7--6--------------------------7--8--9-----------7--6-----------
B|-----7--9--7--------9--7--5--7--9--6--7--9-----------7--9--7--------9--7-----
G|-----------------------------------------------------------------------------
D|-----------------------------------------------------------------------------
A|-----------------------------------------------------------------------------
E|-----------------------------------------------------------------------------

e|--------------------7--8---9v---
B|--5--7--9--6--7--9--------------
G|--------------------------------
D|--------------------------------
A|--------------------------------
E|--------------------------------

[Verse]
e|-----------------------------------------------------
B|--------------------------0-----0--------------------
G|-----------------------1-----------1--------1--------
D|-----------1--3--4--------------------4--------------
A|--4--3--4--------------------------------------------
E|-----------------------------------------------------

My power flurries through the air into the ground
e|-----------------------------------------------------------
B|-----------------------0-----0-----------------------------
G|--------------------1-----------1-----4--4--1--4--1--------
D|-----------1--3--4-----------------4-----------------------
A|--4--3--4--------------------------------------------------
E|-----------------------------------------------------------

My soul is spiralling in frozen fractals all around
e|-----------------------------------------------------
B|-----------------------------2--1--------------------
G|-----------------0--1--3-----------3--1--3-----------
D|--1--0--1--3-----------------------------------------
A|-----------------------------------------------------
E|-----------------------------------------------------

And one thought crystallises like an icy blast
e|--------------------------------------------------
B|--1--1--1--1-----------------------1---2v---------
G|--------------1--1-----1--3--1--3-----------------
D|--------------------------------------------------
A|--------------------------------------------------
E|--------------------------------------------------

I'm never going back, The past is in the past

[Chorus]
e|-----------------------------------------------------------
B|--2--2--2--------------------------------------------------
G|-----------------3-----1--------------------0--1--3--0-----
D|-----------1--1-----------3--3-----3--3--3-----------------
A|-----------------------------------------------------------
E|-----------------------------------------------------------

Let it go let it go, And I'll rise like the break of dawn
e|--------------------------------------------------------------------------
B|--------------------------------1--1--2--1-----------------4--------------
G|-----0--1--------5--5--3-----1--------------3--1--3--1-----------5--3-----
D|--3-----------1-----------------------------------------------------------
A|--------------------------------------------------------------------------
E|--------------------------------------------------------------------------

Let it go let it go, That perfect girl is gone, Here I stand
e|-----------------------------------------------------------------------------------
B|--------4--1--1------------------------------4v------------------------------------
G|--1--1--------------6--5--3-----1--1--0--1-----------------------------------------
D|-----------------------------------------------------------------------------------
A|-----------------------------------------------------4--4--3--4--3--4--4--3--------
E|--------------------------------------------------4--------------------------4-----

In the light of day, Let the storm rage on, The cold never bothered me anyway




tabs and chords, guitar tabs, music transcription, music technology, deep learning, music information retrieval, transcribe into tabs & chords, chordify, music renditions, songsterr, reverbnation, tabulature, bollywood chords, ultimate guitar, yousician, guitar lessons, acoustic guitar, electric guitar, guitar tuner, 911 tabs