Guitar Tabs for Let It Be Transpose

(/) Slide Up  (\) Slide Down  (h) Hammer On  (p) Pull Off  (b) Bend (r) Release (v) Vibrato (x) Muted

Tabs & Chords
BPM : 133.0
Check Track 2 for Chord Positions 

    A#             F                 Gm    D#    A#          F              D#                
E|--------------------------------------------------------------------------------------------
B|-----------------6-----------------6-----6-----6--------------6-----------------------------
G|--3--------5--------5-----5--3-----------------------5-----5-----5--------------------0--3--
D|-----3--------------------------------------------------------------3--------------3--------
A|--------------------------------------------------------------------------6-----6-----------
E|--------------------------------------------------------------------------------------------

                         A#          F        Gm                D#                      A#    
E|--------------------------------------------------------------------------------------------
B|-----------------------------------6--------------------------------------------6-----4--3--
G|-----3--0-----3--3-----------5--------5-----3--0--------------0-----3-----3-----------------
D|--------------------------------------------------0-----------------------------------------
A|-----------6--------------------------------------------6-----------------------------------
E|-----------------------6--------------------------------------------------------------------

          F                 D#       A# 
E|--------------------------------------
B|--------6-----------------------------
G|--5--------5--------3--------------0--
D|--------------3-----------3--3--------
A|--------------------------------------
E|--------------------------------------

Guitar Tabs for Let It Be Transpose






    A#             F                 Gm    D#    A#          F              D#                
E|--1--------------1-----------------3-----6-----1-----------1--------------6-----------------
B|--3--------------1-----------------3-----8-----3-----------1--------------8-----------------
G|--3--------------2-----------------3-----8-----3-----------2--------------8-----------------
D|--3--------------3-----------------5-----8-----3-----------3--------------8-----------------
A|--1--------------3-----------------5-----6-----1-----------3--------------6-----------------
E|-----------------1-----------------3-----------------------1--------------------------------

                         A#          F        Gm                D#                      A#    
E|-----------------------1-----------1--------3-----------------6-----------------------1-----
B|-----------------------3-----------1--------3-----------------8-----------------------3-----
G|-----------------------3-----------2--------3-----------------8-----------------------3-----
D|-----------------------3-----------3--------5-----------------8-----------------------3-----
A|-----------------------1-----------3--------5-----------------6-----------------------1-----
E|-----------------------------------1--------3-----------------------------------------------

          F                 D#       A# 
E|--------1-----------------6--------1--
B|--------1-----------------8--------3--
G|--------2-----------------8--------3--
D|--------3-----------------8--------3--
A|--------3-----------------6--------1--
E|--------1-----------------------------

tabs and chords, guitar tabs, music transcription, music technology, deep learning, music information retrieval, transcribe into tabs & chords, chordify, music renditions, songsterr, reverbnation, tabulature, bollywood chords, ultimate guitar, yousician, guitar lessons, acoustic guitar, electric guitar, guitar tuner, 911 tabs