Guitar Tabs for Let It Be

(/) Slide Up  (\) Slide Down  (h) Hammer On  (p) Pull Off  (b) Bend (r) Release (v) Vibrato (x) Muted 

Intro:

   C            G           Am          F           C           G           F-tap-C  G  C
E|-0------0-----------------0-----0-----------------0-----0-----------------1-----0--3-----
B|-1------1-----3-----3-----1-----1-----1-----1-----1-----1-----3-----3-----1-----1--3--1--
G|-0------0-----0-----0-----2-----2-----2-----2-----0-----0-----0-----0-----2-----0--0--0--
D|-2------2-----0-----0-----2-----2-----3-----3-----2-----2-----0-----0-----3-----2--0--2--
A|-----3-----3--2-----2--------0-----0--3-----3--------3-----3--2-----2-----------------3--
E|-----------------3-----3-----------------1-----1-----------------3-----3-----------------


Verse 1:

   C            G           Am          F           C           G           F-tap-C  G  C
E|-0------0-----------------0-----0-----------------0-----0-----------------1-----0--3-----
B|-1------1-----3-----3-----1-----1-----1-----1-----1-----1-----3-----3-----1-----1--3--1--
G|-0------0-----0-----0-----2-----2-----2-----2-----0-----0-----0-----0-----2-----0--0--0--
D|-2------2-----0-----0-----2-----2-----3-----3-----2-----2-----0-----0-----3-----2--0--2--
A|-----3-----3--2-----2--------0-----0--3-----3--------3-----3--2-----2-----------------3--
E|-----------------3-----3-----------------1-----1-----------------3-----3-----------------
   C            G           Am          F           C           G           F-tap-C  G  C
E|-0------0-----------------0-----0-----------------0-----0-----------------1-----0--3-----
B|-1------1-----3-----3-----1-----1-----1-----1-----1-----1-----3-----3-----1-----1--3--1--
G|-0------0-----0-----0-----2-----2-----2-----2-----0-----0-----0-----0-----2-----0--0--0--
D|-2------2-----0-----0-----2-----2-----3-----3-----2-----2-----0-----0-----3-----2--0--2--
A|-----3-----3--2-----2--------0-----0--3-----3--------3-----3--2-----2-----------------3--
E|-----------------3-----3-----------------1-----1-----------------3-----3-----------------


Chorus 1:

    Am          G           F           C           C           G           F-tap-C  G  C
E|--0-----0-----------------1-----1-----------------0-----0-----------------1-----0--3-----
B|--1-----1-----3-----3-----1-----1-----1-----1-----1-----1-----3-----3-----1-----1--3--1--
G|--2-----2-----0-----0-----2-----2-----0-----0-----0-----0-----0-----0-----2-----0--0--0--
D|--2-----2-----0-----0-----3-----3-----2-----2-----2-----2-----0-----0-----3-----2--0--2--
A|-----0-----0--2-----2--------3-----3--3-----3--------3-----3--2-----2-----------------3--
E|-----------------3-----3-----------------0-----0-----------------3-----3-----------------


Verse 2:

D-U-D-tap

C G Am F C G

D-tap-D-D-D

F     C-G-C

(X2)


Chorus 2:

D-U-D-tap

Am G F C C G

D-tap-D-D-D

F     C-G-C

(X2)


Break:

                                            tap
E|--5-----3--1--0-----------------------------
B|--------------------3--1--0-----------------
G|--------------------------------2--0--2-----
D|--------------------------------------------
A|--------------------------------------------
E|--------------------------------------------

E|---6/8-----6--4--------------------------------------
B|------------------6/8-----6--4-----------------------
G|---------------------------------6/7-----5------6/8--
D|-----------------------------------------------------
A|-----------------------------------------------------
E|-----------------------------------------------------



Verse 3:

D-U-D-tap

C G Am F C G

D-tap-D-D-D

F     C-G-C

(X2)


Chorus 3:

D-U-D-tap

Am G F C C G

D-tap-D-D-D

F     C-G-C

(X3)


-END-



tabs and chords, guitar tabs, music transcription, music technology, deep learning, music information retrieval, transcribe into tabs & chords, chordify, music renditions, songsterr, reverbnation, tabulature, bollywood chords, ultimate guitar, yousician, guitar lessons, acoustic guitar, electric guitar, guitar tuner, 911 tabs