Bass Tabs for Let It Be

Let It Be
BPM : 72

[Verse]
G|--------------------------------------------------
D|--------------------------------------3--2--0-----
A|--3--3--------0--0--------3--3-----------------3--
E|--------3--3--------1--1--------3--3--------------

[Chorus]
G|--------------------------------------------------
D|--------------------------------------3--2--0-----
A|--------------------3--3--3--3-----------------3--
E|--5--5--3--3--1--1--------------3--3--------------

Paste any tab in acousterr's tab maker and we'll play it !!!
Now supports capo and sound effects for vibrato/pull-off/hammer/bends/mutes etc !!! Checkout help section
tabs and chords, guitar tabs, music transcription, music technology, deep learning, music information retrieval, transcribe into tabs & chords, chordify, music renditions, songsterr, reverbnation, tabulature, bollywood chords, ultimate guitar, yousician, guitar lessons, acoustic guitar, electric guitar, guitar tuner, 911 tabs