Guitar Tabs for Left My Heart In Republic City

(/) Slide Up  (\) Slide Down  (h) Hammer On  (p) Pull Off  (b) Bend (r) Release (v) Vibrato

Tabs for Song : Left My Heart in Republic City
E|--------------------------------------------------
B|--------------------------------------------------
G|--------9-----7-----7-----7--7-----7-----7--7-----
D|--7-----------7-----7-----7--7-----7-----7--7-----
A|--------------8--------------8--------------8-----
E|--------------------------------------------------


E|--------------------------------------------------
B|--------------------------------------------------
G|--------9-----7-----7-----7--7-----7-----7--7-----
D|--7-----------6-----6-----6--6-----6-----6--6-----
A|--------------8--------------8--------------8-----
E|--------------------------------------------------

E|-----------------------------------------------------------
B|--------------6-----------5--------------------------------
G|--------9-----7-----7---7/6-----6---6p-5h-6p5-----3--5-----
D|--6-----------6-----------5--------------------------------
A|-----------------------------------------------------------
E|-----------------------------------------------------------

E|-----------------------------------------------------
B|-----------------------------------------------------
G|--5-----5-----5--5--------4-----4-----4--4-----------
D|--3-----3-----3--3--------3-----3-----3--3-----------
A|--0-----------------------0--------------0-----------
E|-----------------------------------------------------

E|------------------------------------5\---5------5\---5-----------1--
B|-----------------------------6------5\---5------5\---5-----------1--
G|--3--------5--------7--------7--7---5\---5------5\---5-----------2--
D|--5---5\---7---7\---8---8\------------------------------------------
A|--------------------------------------------------------------------
E|--------------------------------------------------------------------

tabs and chords, guitar tabs, music transcription, music technology, deep learning, music information retrieval, transcribe into tabs & chords, chordify, music renditions, songsterr, reverbnation, tabulature, bollywood chords, ultimate guitar, yousician, guitar lessons, acoustic guitar, electric guitar, guitar tuner, 911 tabs