Heart To Heart - Guitar Tabs

Verse 1:
D|--------------------------------------------------------------------------------------------------------------------
A|--------------------------------------------------------------------------------------------------------------------
F|--------------------------------------------------------------------------------------------------------------------
C|-----------0--2--3-----3--2-----------------------------------------1-----1--1--------------------------------5--5--
G|-----0--3-----------3--------2--------------2--0-----2--3-----0--2-----3--------5-----5-----5--5---------3h5--------
D|--1-----------------------------1--0--2--3--------3--------3-----------------------5-----5--------2--3--------------

D|-----------------------
A|-----------------------
F|-----------------------
C|--------------5--5-----
G|--5------3h5--------5--
D|-----3-----------------



Verse 2:
A|-------------------------------------------------------------------------------------------------------------------------------------
A|-----------------------------------------------------------------------------------------------------------------------------------
F|-----------------------------------------------------------------------------------------------------------------------------------
C|-----------0--2--3-----3--2--------------------------------------------1-----1-----------1--------------------------------5--5--
G|-----0--3-----------3--------2---------------1\2--0-----2--3-----0--2-----3-----3-----------5-----5-----5--5---------3h5--------
D|--1-----------------------------1--0--2--3-----------3--------3--------------------3--3--------5-----5--------2--3--------------

D|-----------------------
A|-----------------------
F|-----------------------
C|--------------5--5-----
G|--5------3h5--------5--
D|-----3-----------------


Chorus  
D|--------------------------------------------------------------------------------------------------------
A|--------------------------------------------------------------------------------------------------------
F|--------------------------------------------------------------------------------------------------------
C|-----------------------------------------5--5--------------5--5-----------------------------------------
G|--5--3-----3--3--------3--5---------3h5--------5------3h5--------5--3-----3--3--------3--5---------3h5--
D|--------3--------3--1--------2--3-----------------3--------------------3--------3--1--------2--3--------

D|--------------------------
A|--------------------------
F|--------------------------
C|--5--5--------------5--5--
G|--------5------3h5--------
D|-----------3--------------






About Heart to Heart (Merle Haggard and Leona Williams album) : Heart to Heart is a duet album by Merle Haggard and Leona Williams with backing by The Strangers . It reached number 44 on the Billboard Heart to Heart was released just weeks after Haggard and Williams divorced . Heart to Heart was Haggard's third duet album in two years . It was co-written "We're Stranger's Again," did not crack the country Top 40 . It had a contribution from notable artists like Merle Haggard. It had an affiliation to bands - Heart to Heart,The Strangers. Its music is influenced by genres - country.

tabs and chords, guitar tabs, music transcription, music technology, deep learning, music information retrieval, transcribe into tabs & chords, chordify, music renditions, songsterr, reverbnation, tabulature, bollywood chords, ultimate guitar, yousician, guitar lessons, acoustic guitar, electric guitar, guitar tuner, 911 tabs