Guitar Tabs for Lazarus

(/) Slide Up  (\) Slide Down  (h) Hammer On  (p) Pull Off  (b) Bend (r) Release (v) Vibrato (x) Muted

Part 1

Riff A:
E|--------------------------------------------------------------------------------------------------
B|--------------------------------------------------------------------------------------------------
G|--------------------------------------------------------------------------------------------------
D|--------10-------10-------10-------10-------10p9--------9--------9--------9--------9---------9h10-
A|-----7--------7--------7--------7--------7-----------7--------7--------7--------7--------7--------
E|--8--------8--------8--------8--------8-----------8--------8--------8--------8--------8-----------

Riff B:
E|--------------------------------------------------------------------------------------------
B|--------------------------------------------------------------------------------------------
G|--------9--------9--------9--------9--------7--------9--------9--------9--------9--------7--
D|-----7--------7--------7--------7--------7--------7--------7--------7--------7--------7-----
A|--8--------8--------8--------8--------8--------8--------8--------8--------8--------8--------
E|--------------------------------------------------------------------------------------------

Part 2

Verse              Chorus         Bridge
E|-----------------------0--------------0--------
B|--------8--------------0--------------1--------
G|--9-----9--------2-----0--------2-----2-----4--
D|--10----9--------3-----2--------3-----2-----5--
A|--10----7--------3-----2--------3-----0-----5--
E|--8--------------1-----0--------1-----------3--
    7x    9x       7x    9x       16x   6x    10x

Part 3

Verse
E|--------------------------------------------------
B|--------------------------------------------------
G|--------------------------------7-----------7-----
D|--------------7--9--7--------5-----5-----5-----5--
A|--7--7--10-7--7--7--7--7--7-----------7-----------
E|--8--8--8--8--8--8--8--0--------------------------

Chorus
E|-----0--
B|-----0--
G|--2--0--
D|--3--2--
A|--3--2--
E|--1--0--

Structure:

Part 1 (0:00 - 2:38):
Riff A 2x
Riff B 2x
Riff A 2x
Riff B 2x
Riff A 4x
Riff B 2x
Riff A 4x
Riff B 2x
Riff A 9x

Part 2 (2:42 - 4:28):
Verse 8x
Chorus 4x
Verse 5x
Chorus 4x
Verse 5x
Bridge 4x
Verse 8x

Part 3 (4:33 - end):
Verse 8x
Chorus 4x
Verse 8x
Chorus 4x
Verse 4x
tabs and chords, guitar tabs, music transcription, music technology, deep learning, music information retrieval, transcribe into tabs & chords, chordify, music renditions, songsterr, reverbnation, tabulature, bollywood chords, ultimate guitar, yousician, guitar lessons, acoustic guitar, electric guitar, guitar tuner, 911 tabs