Guitar Tabs for Larry Corvix

(/) Slide Up  (\) Slide Down  (h) Hammer On  (p) Pull Off  (b) Bend (r) Release (v) Vibrato (x) Muted

Tabs for Song : 

Song lyrics here
D|--------------------------------------x--x--x--x--------------------------------------x--------
A|--------------------------------------x--x--x--x--------------------------------------x--------
F|-----------------0--------------------x--x--x--x-----------------0--------------------x--------
C|--------2--------2--------------2-----x--x--x--x--------2--------2--------------------x--------
G|--3-----3-----3--------3-----3--3-----x--x--x--x--3-----3-----3--------3--------------x--------
C|--3-----------3--------3-----3--------x--x--x--x--3-----------3--------3-----0--0-----x--0--0--

D|--------------------------------------x--x--x--x--------------------------------------x--------
A|--------------------------------------x--x--x--x--5-----------------------------------x--------
F|--5-----5--------5-----5-----5--5-----x--x--x--x--5-----5--------5-----5--------------x--------
C|--7-----7--------7-----7-----7--7-----x--x--x--x--7-----7--------7-----7--------------x--------
G|--3-----3--------3-----3-----3--3-----x--x--x--x--3-----3--------3-----3--------------x--------
C|--3-----3--------3-----3-----3--3-----x--x--x--x--3-----3--------3-----3-----0--0-----x--0--0--

D|--------------------------------------------------------------------------------------------------
A|--------------------------------------------------------------------------------------------------
F|--------------------------------------------------------------------------------------------------
C|--7--7--7--7--7--7--7--7--7--7--7--7--5--5--5--5--7--7--7--7--7--7--10-10-3--3--3--3--3--3--3--3--
G|--7--7--7--7--7--7--7--7--7--7--7--7--5--5--5--5--7--7--7--7--7--7--10-10-3--3--3--3--3--3--3--3--
C|--7--7--7--7--7--7--7--7--7--7--7--7--5--5--5--5--7--7--7--7--7--7--10-10-3--3--3--3--3--3--3--3--

D|--7-----------8-----------5-----------7-----------10----------------10----12-------13-------13----
A|--------5-----------5-----------5-----------5--------10----------10----------10-------10----------
F|--------------------------------------------------------10----10-------10-------10-------10----10-
C|-----------------------------------------------------------0--------------------------------------
G|--------------------------------------------------------------------------------------------------
C|--------------------------------------------------------------------------------------------------

D|--7-----------8-----------5-----------7-----------8-----8-----8-----10----7-----7-----7-----7-----
A|--------5-----------5-----------5-----------5--------8-----8-----8-----8-----8-----8-----8-----8--
F|--------------------------------------------------------------------------------------------------
C|--------------------------------------------------------------------------------------------------
G|--------------------------------------------------------------------------------------------------
C|--------------------------------------------------------------------------------------------------

D|-----------------------------------------------------------------
A|-----------------------------------------------------------------
F|---------------------------------------------------9h---9-----9--
C|--0--0--0--3--0--------------------0--3--0--3-----10h---10----10-
G|--0--0--0--3--0--------------------0--3--0--3------7h---7-----7--
C|--0--0--0--3--0--------------------0--3--0--3------7h---7-----7--



Now supports capo and sound effects for vibrato/pull-off/hammer/bends/mutes etc !!! Checkout help section
tabs and chords, guitar tabs, music contests, music covers, songsterr, reverbnation, renditions, tabulature, bollywood chords, ultimate guitar, yousician, guitar lessons, torrins, fender, gibson, acoustic guitar, electric guitar, youtube covers, gootar, guitar tuner, A-Z tabs, 911 tabs