Guitar Tabs for Lae Dooba - Aiyaary Tabs

(/) Slide Up  (\) Slide Down  (h) Hammer On  (p) Pull Off  (b) Bend (r) Release (v) Vibrato

Tabs for Song : Lae Dooba

Mainu ishq tera lae dooba Haan ishq tera lae dooba
E|-----------------------------------------------------------------
B|--7--7--6--7--6--------7-----------7--6--7--6--------7-----------
G|-----------------6--8-----8--6--6--------------6--8-----8--6--6--
D|-----------------------------------------------------------------
A|-----------------------------------------------------------------
E|-----------------------------------------------------------------

Aisa kyun hota hai Tere jaane ke baad
E|-----6-----------------6--------------
B|--------9--9--6--7--------9--9--6--7--
G|--6-----------------6-----------------
D|--------------------------------------
A|--------------------------------------
E|--------------------------------------

Lagta hai haathon mein Reh gaye tere haath
E|-----7--6--6--------7--6--6--------
B|--------------7--9-----------7--9--
G|--6--------------------------------
D|-----------------------------------
A|-----------------------------------
E|-----------------------------------

Tu shaamil hai mere Hansne mein, rone mein
E|--6--6-----------------6--------------
B|--------9--9--6--7--------9--9--6--7--
G|--------------------6-----------------
D|--------------------------------------
A|--------------------------------------
E|--------------------------------------

Hai kya koyi kami Mere paagal hone mein
E|-----6--------------------6--------------
B|--------9--9--7--7-----------9--9--7--6--
G|--6-----------------6--8-----------------
D|-----------------------------------------
A|-----------------------------------------
E|-----------------------------------------

Mainu ishq tera le dooba Haan ishq tera le dooba
E|-----------------------------------------------------------------
B|--7--7--6--7--6--------7-----------7--6--7--6--------7-----------
G|-----------------6--8-----8--6--6--------------6--8-----8--6--6--
D|-----------------------------------------------------------------
A|-----------------------------------------------------------------
E|-----------------------------------------------------------------

Mainu ishq tera le dooba Haan ishq tera le dooba
E|-----------------------------------------------------------------
B|--7--7--6--7--6--------7-----------7--6--7--6--------9--7--------
G|-----------------6--8-----8--6--6--------------6--8--------8--6--
D|-----------------------------------------------------------------
A|-----------------------------------------------------------------
E|-----------------------------------------------------------------

tabs and chords, guitar tabs, music contests, music covers, songsterr, reverbnation, renditions, tabulature, bollywood chords, ultimate guitar, yousician, guitar lessons, torrins, fender, gibson, acoustic guitar, electric guitar, youtube covers, gootar, guitar tuner, A-Z tabs, 911 tabs