Guitar Tabs for Kuch Toh Hai Guitar Intro

E|-----------------------------------------------------------
B|-----------------3--------------------------3--------------
G|--------0-----0-----0-----0--------0-----0-----0-----0-----
D|-----------4-----------4--------------4-----------4--------
A|-----------------------------------------------------------
E|-----0--------------------------3--------------------------

E|--------------------------------------------------
B|--------------3--------------------------3--------
G|-----0-----0-----0-----------------0--------0-----
D|--------4--------------4--------------4-----------
A|--0-----------------------5-----5-----------------
E|--------------------------------------------------

E|-----------------------------------------------------------
B|-----------------3--------------------------3--------------
G|--------0-----0-----0-----0--------0-----0-----0-----0-----
D|-----------4-----------4--------------4-----------4--------
A|-----------------------------------------------------------
E|-----0--------------------------3--------------------------

E|--------------------------------------------------
B|--------------3--------------------------3--------
G|-----0-----0-----0-----------------0--------0-----
D|--------4--------------4--2-----------4-----------
A|--0-----------------------------5-----------------
E|--------------------------------------------------
tabs and chords, guitar tabs, music transcription, music technology, deep learning, music information retrieval, transcribe into tabs & chords, chordify, music renditions, songsterr, reverbnation, tabulature, bollywood chords, ultimate guitar, yousician, guitar lessons, acoustic guitar, electric guitar, guitar tuner, 911 tabs