Ukulele Tabs for Kuch Kuch Hota Hai Ukulele

Na jaane kaisa ahasaas hai
A|-----2-----3-----5---5/7---3\2--0--0-----2-----3--5-----
E|-----3---------------0-------------0--------------2-----
C|-----2---------------0-------------0--------------2-----
G|-----0-----------------------------2--------------2-----

Bujhatii nahii hai, kya pyaas hai
A|-----2-----3-----5---5/7---3\2--0--0-----2-----3--5-----
E|-----3---------------0-------------0--------------2-----
C|-----2---------------0-------------0--------------2-----
G|-----0-----------------------------2--------------2-----

Kya nasha is pyaar ka
A|--0-----2--0-----------------0--------
E|--0--------------3--2--2-----2--------
C|--0--------------------------2--2-----
G|--2-----------------------------------

Mujhape sanam'hu chhaane laga
A|--0-----------0--------------------------0-----------2-----
E|--3--2--0-----0--------------------------3--3--3-----3-----
C|--2--------2--2-----2---2h-4p2--0-----2--2-----------2-----
G|-----------------------------------------0-----------0-----

Koii na jaane, kyo chain khota hai
A|--------0--2---5/7--7--5-----------0--2---5/7--7--5--
E|--3-----3------0-------------3-----3------0----------
C|--------2------0-------------------2------0----------
G|--------0--------------------------0-----------------

Kya karuu.n haa'e
Kuchh kuchh hota hai
A|--0-----2--0--------0--------0-----0-----------------
E|--0-----------3--2--2--------3--3-----3--3--3--3-----
C|--0-----------------2--2-----2-----------------------
G|--2--------------------------0-----------------------

Kya karuu.n haa'e
Kuchh kuchh hota hai
A|--0-----2--0--------0--------0-----3--2--------------
E|--0-----------3--2--2--------3--3--------3--3--3-----
C|--0-----------------2--2-----2-----------------------
G|--2--------------------------0-----------------------

Tum paas aa'e
Yuu'n muskaraa'e
A|--2-----3--2--0-----2-----2-----3--2--------2-----
E|--3--------------3--3-----3-----------5--3--3-----
C|--2-----------------2-----4-----------------2-----
G|--0-----------------0-----0-----------------0-----

Tum ne na jaane kya
Sapane dikhaa'e
A|--0-----2--0--------0--------0-----0-----------------
E|--0-----------3--2--2--------3--3-----3--3--3--3-----
C|--0-----------------2--2-----2-----------------------
G|--2--------------------------0-----------------------
tabs and chords, guitar tabs, music transcription, music technology, deep learning, music information retrieval, transcribe into tabs & chords, chordify, music renditions, songsterr, reverbnation, tabulature, bollywood chords, ultimate guitar, yousician, guitar lessons, acoustic guitar, electric guitar, guitar tuner, 911 tabs