Guitar Tabs for Kuch Kuch Hota Hai

(/) Slide Up  (\) Slide Down  (h) Hammer On  (p) Pull Off  (b) Bend (r) Release (v) Vibrato

Tabs for Song : Kuch Kuch Hota Hai Love Theme

tum pass aaye.....(play two times )
E|--7--8--7--------------7--
B|--------------10----8-----
G|--------------------------
D|--------------------------
A|--------------------------
E|--------------------------

Tumne na jaane kya...
E|-----------7--------------------------------------------
B|--------10----10-8--7--10----------10-8--10-8-----8--8--
G|--------------------------7-----------------------------
D|--------------------------------------------------------
A|--------------------------------------------------------
E|--------------------------------------------------------

ab toh mera dil(play 2 times )
E|-----------7-----10/12-12----10-
B|-----8--10----------------------
G|--------------------------------
D|--------------------------------
A|--------------------------------
E|--------------------------------


kya karun haaye..
E|--------7-----------------------------------------------
B|-----10----10-8-----7--10-------10-8--10-8-----8--8--8--
G|--------------------------7-----------------------------
D|--------------------------------------------------------
A|--------------------------------------------------------
E|--------------------------------------------------------

Now supports capo and sound effects for vibrato/pull-off/hammer/bends etc !!! Checkout help section
tabs and chords, guitar tabs, music contests, music covers, songsterr, reverbnation, renditions, tabulature, bollywood chords, ultimate guitar, yousician, guitar lessons, torrins, fender, gibson, acoustic guitar, electric guitar, youtube covers, gootar, guitar tuner, A-Z tabs, 911 tabs