Guitar Tabs for Kuch Kuch Hota Hai Guitar Theme

E|--7--8---7h-8p7--------7-----7--8---7h-8p7--------7-----
B|-----------------10-8-----------------------10-8--------
G|--------------------------------------------------------
D|--------------------------------------------------------
A|--------------------------------------------------------
E|--------------------------------------------------------

E|-----7--------------------------------------------
B|--10----10-8--7--10-------10-8--10-8--8--8--8-----
G|--------------------7-----------------------------
D|--------------------------------------------------
A|--------------------------------------------------
E|--------------------------------------------------

E|--------7--10/12-12-10----------7--10/12-12-10----
B|--8--10-------------------8--10-------------------
G|--------------------------------------------------
D|--------------------------------------------------
A|--------------------------------------------------
E|--------------------------------------------------

E|-----7--------------------------------------------
B|--10----10-8--7--10-------10-8--10-8--8--8--8-----
G|--------------------7-----------------------------
D|--------------------------------------------------
A|--------------------------------------------------
E|--------------------------------------------------

E|-----7--------------------------8--7--------------
B|--10----10-8--7--10-------10-8--------8--8--8-----
G|--------------------7-----------------------------
D|--------------------------------------------------
A|--------------------------------------------------
E|--------------------------------------------------
tabs and chords, guitar tabs, music transcription, music technology, deep learning, music information retrieval, transcribe into tabs & chords, chordify, music renditions, songsterr, reverbnation, tabulature, bollywood chords, ultimate guitar, yousician, guitar lessons, acoustic guitar, electric guitar, guitar tuner, 911 tabs