Guitar Tabs for Kuch Iss Tarah - 1921 Tabs

(/) Slide Up  (\) Slide Down  (h) Hammer On  (p) Pull Off  (b) Bend (r) Release (v) Vibrato

Tabs for Song : Kuch Iss Tarah 

Kuch iss tarah Kuch iss tarah
E|-----------------------------11-
B|-----14-13-14-13-11-11-13-14----
G|--10----------------------------
D|--------------------------------
A|--------------------------------
E|--------------------------------

Ae raat tham zaraa Kuch iss tarah
E|-----------------------------------
B|--13-11-13-11-13-11-10-10-11-13-14-
G|-----------------------------------
D|-----------------------------------
A|-----------------------------------
E|-----------------------------------

Do jism se ek jaan mein
E|-----------------------------11-
B|-----14-13-14-13-11-11-13-14----
G|--10----------------------------
D|--------------------------------
A|--------------------------------
E|--------------------------------

Dhal jaaye hum zara Kuch iss tarah
E|-----------------------------------
B|--13-11-13-11-13-11-10-13-13-11-11-
G|-----------------------------------
D|-----------------------------------
A|-----------------------------------
E|-----------------------------------

Ye jo chand ik laqeer sa hai aasmaan par
E|--13-14-13-14-13-14-13-14-13-14-11-13-11-13-11-
B|-----------------------------------------------
G|-----------------------------------------------
D|-----------------------------------------------
A|-----------------------------------------------
E|-----------------------------------------------

Yunhi aankh mein meri reh chamakta raat bhar
E|--11-13-11-13-11-13-11-13-11----------11-14-13-
B|-----------------------------14-13-14----------
G|-----------------------------------------------
D|-----------------------------------------------
A|-----------------------------------------------
E|-----------------------------------------------

Ae baadalon zaraa si tum se ilteja hai yeh
E|--14-13-14-13-14-13-14-13-14-11-13-11-13-11-
B|--------------------------------------------
G|--------------------------------------------
D|--------------------------------------------
A|--------------------------------------------
E|--------------------------------------------

Fanaa na ho ummeed ke sitaare doob kar
E|--13-11-13-11-13-11-13-11----------11-------
B|--------------------------14-13-14----14-13-
G|--------------------------------------------
D|--------------------------------------------
A|--------------------------------------------
E|--------------------------------------------

Again Repeat Part 1.
tabs and chords, guitar tabs, music transcription, music technology, deep learning, music information retrieval, transcribe into tabs & chords, chordify, music renditions, songsterr, reverbnation, tabulature, bollywood chords, ultimate guitar, yousician, guitar lessons, acoustic guitar, electric guitar, guitar tuner, 911 tabs