Guitar Tabs for Kuch Iss Tarha - Atif Aslam Tabs

Tabs for Song : Kuch iss tarha

kuch is tarah teri palke
E|--12----10-9--10----9--7--5--5--4-----
B|--------------------------------------
G|--------------------------------------
D|--------------------------------------
A|--------------------------------------
E|--------------------------------------

meri palkon se mila de
E|--4--5--7-----7--7-----5--7--9-----
B|-----------------------------------
G|-----------------------------------
D|-----------------------------------
A|-----------------------------------
E|-----------------------------------

aansu tere sare
E|--12----12-10-9-----7--5--7--5--4-----
B|--------------------------------------
G|--------------------------------------
D|--------------------------------------
A|--------------------------------------
E|--------------------------------------

meri palkho pe sajaa de
E|--4--5--7-----7--7-----5--7--9-----
B|-----------------------------------
G|-----------------------------------
D|-----------------------------------
A|-----------------------------------
E|-----------------------------------

tu har ghadi har waqt
E|--9--9--7--9-----10-9--5--4-----
B|--------------------------------
G|--------------------------------
D|--------------------------------
A|--------------------------------
E|--------------------------------

mere sath raha hai
E|--4--5--5-----9--5--7--7-----
B|-----------------------------
G|-----------------------------
D|-----------------------------
A|-----------------------------
E|-----------------------------

haan yeh jism kabhi duuuur
E|--9--7--9-----9--7---7h12----
B|-----------------------------
G|-----------------------------
D|-----------------------------
A|-----------------------------
E|-----------------------------

kabhi pass raha hai
E|--4--5--5--9--5--7--7-----
B|--------------------------
G|--------------------------
D|--------------------------
A|--------------------------
E|--------------------------


tabs and chords, guitar tabs, music contests, music covers, songsterr, reverbnation, renditions, tabulature, bollywood chords, ultimate guitar, yousician, guitar lessons, torrins, fender, gibson, acoustic guitar, electric guitar, youtube covers, gootar, guitar tuner, A-Z tabs, 911 tabs