Guitar Tabs for Khud Ko Tere - 1920 The Evil Returns Tabs

(/) Slide Up  (\) Slide Down  (h) Hammer On  (p) Pull Off  (b) Bend (r) Release (v) Vibrato

Tabs for Song : Khud Ko Tere

Tum Bhi Tanha They Hum Bhi Tanha They Milke Rone Lage
E|--8--9--8--6-----8--9--8--6-----8--9--8--------6--
B|--------------9--------------9-----------9--8-----
G|--------------------------------------------------
D|--------------------------------------------------
A|--------------------------------------------------
E|--------------------------------------------------

Ek Jaise They Dono Ke Gham Davaa Hone Lage
E|--8--9--8--6-----8--9--8--6--------6--6-----------
B|--------------9--------------9--9--------9--8--6--
G|--------------------------------------------------
D|--------------------------------------------------
A|--------------------------------------------------
E|--------------------------------------------------

Tujh Mein Muskurate Hain Tujh Mein Gungunaate Hain
E|-----6--8--9--6--------6--------6--8--------------
B|--9--------------9--8-----8--9--------9--8--6--9--
G|--------------------------------------------------
D|--------------------------------------------------
A|--------------------------------------------------
E|--------------------------------------------------

Khud Ko Tere Paas Hi Chhod Aate Hain
E|-----------6------------------------8/9--8--7--8--
B|--6--8--9-----8--6--5--6--8--6--6-----------------
G|--------------------------------------------------
D|--------------------------------------------------
A|--------------------------------------------------
E|--------------------------------------------------

Tere Hi Khyalon Mein Doobe Doobe Jaate Hain
E|-----6--8--9--6--------6--------6--8--------------
B|--9--------------9--8-----8--9--------9--8--6--9--
G|--------------------------------------------------
D|--------------------------------------------------
A|--------------------------------------------------
E|--------------------------------------------------

Khud Ko Tere Paas Hi Chhod Aate Hain
E|-----------6------------------------8/9--8--7--8--
B|--6--8--9-----8--6--5--6--8--6--6-----------------
G|--------------------------------------------------
D|--------------------------------------------------
A|--------------------------------------------------
E|--------------------------------------------------
tabs and chords, guitar tabs, music contests, music covers, songsterr, reverbnation, renditions, tabulature, bollywood chords, ultimate guitar, yousician, guitar lessons, torrins, fender, gibson, acoustic guitar, electric guitar, youtube covers, gootar, guitar tuner, A-Z tabs, 911 tabs