Guitar Tabs for Tere Naam

tere ishq me....
E|--6--7---7/9--7---7/9--7--6---6h-7p6-----------6--7---7/9--7---7/9--7--7-----7--
B|---------------------------------------9/11-------------------------------------
G|--------------------------------------------------------------------------------
D|--------------------------------------------------------------------------------
A|--------------------------------------------------------------------------------
E|--------------------------------------------------------------------------------

tere ishq me...
E|-----6--7---7/9--7---7/9--7--6---6h-7p6-----------6--7---7/9--7---7/9--7--7-----7--
B|------------------------------------------9/11-------------------------------------
G|-----------------------------------------------------------------------------------
D|-----------------------------------------------------------------------------------
A|-----------------------------------------------------------------------------------
E|-----------------------------------------------------------------------------------

Gulshan Bhi To
Ab to Veerana Lagta Hai
E|-----6-----7------7/9-----7-----6------6h7-----7---7p6-----------------------------
B|-----------------------------------------------------------7------7/9------9\7-----
G|-----------------------------------------------------------------------------------
D|-----------------------------------------------------------------------------------
A|-----------------------------------------------------------------------------------
E|-----------------------------------------------------------------------------------

Har Aapna Hum 
Ko Begana Lagta Hai
E|--6-----7------7/9-----7-----6------6h7-----7---7p6--------------------------
B|--------------------------------------------------------7------7/9-----9-----
G|-----------------------------------------------------------------------------
D|-----------------------------------------------------------------------------
A|-----------------------------------------------------------------------------
E|-----------------------------------------------------------------------------

Hum Teri Yaadon 
Mein Khoye Rehte Hai
E|--6-----7------7/9-----7-----6------6h7-----7---7p6-----------------------------
B|--------------------------------------------------------7------9/12-----9\7-----
G|--------------------------------------------------------------------------------
D|--------------------------------------------------------------------------------
A|--------------------------------------------------------------------------------
E|--------------------------------------------------------------------------------

Log Hume Pagal 
Deewana Kehte Hai
E|--6-----7------7/9-----7-----6------6h7-----7---7p6--------------------------
B|--------------------------------------------------------7------7/9-----9-----
G|-----------------------------------------------------------------------------
D|-----------------------------------------------------------------------------
A|-----------------------------------------------------------------------------
E|-----------------------------------------------------------------------------

Tere Bina 
Tere Bina...
E|-----12\9---9\6--6---6h-7p6---------9/11--9h11p9---9\7--7--7-----
B|-----------------------------9-----------------------------------
G|-----------------------------------------------------------------
D|-----------------------------------------------------------------
A|-----------------------------------------------------------------
E|-----------------------------------------------------------------

Tere Bina Naamumkin Hai 
E|---7\6--6--6--7--9--6---6h7--7--7-----6--7---6h-7p6-----------------
B|-----------------------------------------------------9--7--9--7-----
G|--------------------------------------------------------------------
D|--------------------------------------------------------------------
A|--------------------------------------------------------------------
E|--------------------------------------------------------------------

Zindagi Ka Guzara Sanam
E|-----------------------------------------7--------------------
B|---------7/9---9\7--7---9/11-9--7--7--------9---7h-9p7--------
G|--8--9---------------------------------------------------9\8--
D|--------------------------------------------------------------
A|--------------------------------------------------------------
E|--------------------------------------------------------------

Zindagi Ka Guzara sanam
E|-----------------------------------------------
B|---------7/9---9\7--7---9/11----9--7---9/12----
G|--8--9-----------------------------------------
D|-----------------------------------------------
A|-----------------------------------------------
E|-----------------------------------------------

main intro
E|-----------------------------------7--6--9--7---6h-7p6-----------
B|--------7--9---7h-9p7--7-----7--------------------------9-----9--
G|--8--9-----------------------------------------------------------
D|-----------------------------------------------------------------
A|-----------------------------------------------------------------
E|-----------------------------------------------------------------


E|-----------------------------------7--6--------------------------------------
B|-----------7--9---7/9--9-----9-----------9--7--7-----9---7h-9p7--------------
G|-----8--9--------------------------------------------------------9--8--------
D|-----------------------------------------------------------------------------
A|-----------------------------------------------------------------------------
E|-----------------------------------------------------------------------------
tabs and chords, guitar tabs, music transcription, music technology, deep learning, music information retrieval, transcribe into tabs & chords, chordify, music renditions, songsterr, reverbnation, tabulature, bollywood chords, ultimate guitar, yousician, guitar lessons, acoustic guitar, electric guitar, guitar tuner, 911 tabs