Guitar Tabs for Uska Hi Banana - 1920 Evil Returns Tabs

(/) Slide Up  (\) Slide Down  (h) Hammer On  (p) Pull Off  (b) Bend (r) Release (v) Vibrato

Tabs for Song : Uska Hi Banana

Meri Kismat Ke Har Ek Panne Pe
E|-----------8--------------8--------
B|---6/8--9-----9--8--8--9-----9--8--
G|-----------------------------------
D|-----------------------------------
A|-----------------------------------
E|-----------------------------------

Mere Jeete Ji Baad Marne Ke
E|-----------8--------------------8-----------
B|---6/8--9-----9---8\6-----8--9-----9---8\6--
G|--------------------------------------------
D|--------------------------------------------
A|--------------------------------------------
E|--------------------------------------------

Mere Har Ek Kal Har Ek Lamhein Mein
E|-----------10-8---8/10/13-10-8--10-8--8--
B|---6/8--9--------------------------------
G|-----------------------------------------
D|-----------------------------------------
A|-----------------------------------------
E|-----------------------------------------

Tu Likh De Mera Use
E|--10-8--------------8--8-----
B|--------11-11-9--9--------8--
G|-----------------------------
D|-----------------------------
A|-----------------------------
E|-----------------------------

Har Kahani Mein Saare Kisson Mein
Dil Ki Duniya Ke Sacche Rishton Mein
Zindagaani Ke Saare Hisson Mein
Tu Likh De Mera Use (Same As Previous One)

Aye Khuda Aye Khuda
E|--8--10-11/15-8--10-10----
B|-----------------------11-
G|--------------------------
D|--------------------------
A|--------------------------
E|--------------------------

Jab Bana Uska Hi Bana
E|-----11-11-11----------------
B|--11----------9--9--11-9--8--
G|-----------------------------
D|-----------------------------
A|-----------------------------
E|-----------------------------

Aye Khuda Aye Khuda
E|--8--10-11/15-13-11-8--10-8-----
B|-----------------------------11-
G|--------------------------------
D|--------------------------------
A|--------------------------------
E|--------------------------------

Jab Bana Uska Hi Bana
E|-----11-11-11----------------
B|--11----------9--9--11-9--8--
G|-----------------------------
D|-----------------------------
A|-----------------------------
E|-----------------------------

tabs and chords, guitar tabs, music contests, music covers, songsterr, reverbnation, renditions, tabulature, bollywood chords, ultimate guitar, yousician, guitar lessons, torrins, fender, gibson, acoustic guitar, electric guitar, youtube covers, gootar, guitar tuner, A-Z tabs, 911 tabs