Guitar Tabs for Karvina

(/) Sle Up  (\) Slide Down  (h) Hammer On  (p) Pull Off  (b) Bend (r) Release (v) Vibrato (x) Muted
E|--------------10----------------------------------------------------------3---3h5--2---0h-2/3---2p0--------------------------
B|--10b12----------10/12-------------------------------------------------------------------------------3---3h5---5/8--8-----5--
G|-----------------------------12-12-12\0--------0--0-----------0--2---2/4-----------------------------------------------------
D|--------------------------0--------------0--2--------4--0--2-----------------------------------------------------------------
A|-----------------------------------------------------------------------------------------------------------------------------
E|-----------------------------------------------------------------------------------------------------------------------------

E|--
B|--
G|--
D|--
A|--
E|--

E|--5-----------------
B|-----3------3p0-----
G|--------4--------2--
D|--------------------
A|--------------------
E|--------------------


Tabs for Song : 

Song lyrics here


Song lyrics here
E|--
B|--
G|--
D|--
A|--
E|--

Paste any tab in acousterr's tab maker and we'll play it !!!
Now supports capo and sound effects for vibrato/pull-off/hammer/bends/mutes etc !!! Checkout help section
tabs and chords, guitar tabs, music transcription, music technology, deep learning, music information retrieval, transcribe into tabs & chords, chordify, music renditions, songsterr, reverbnation, tabulature, bollywood chords, ultimate guitar, yousician, guitar lessons, acoustic guitar, electric guitar, guitar tuner, 911 tabs