Ukulele Tabs for Kaise Hua Ukulele Tabs

Hansta rehta hu tujhse mil kar kyu 
A|--------------------------------------------------------------
E|--10-7--10-7--10-7--10----10----7--10-7--10-7--10-7--10-10----
C|--------------------------------------------------------------
G|--------------------------------------------------------------

aajkal
A|--------------------------------------------
E|--9-----9-----7--5---7/9-----9-----7--5-----
C|--------------------------------------------
G|--------------------------------------------

Badle badle hain mere tevar kyun aajkal
A|--------------------------------------------------------------------------------------
E|--10-7--10-7--10-7--10----10----7--10-7--10-7--10-7--10----10----9-----9-----7--5-----
C|--------------------------------------------------------------------------------------
G|--------------------------------------------------------------------------------------

Aankhein meri har jagah
A|--------------------------------------------------------------
E|---7/9--9-----7--7--7-----9-----10----7------9/10----7--5-----
C|--------------------------------------------------------------
G|--------------------------------------------------------------

Dhoondhe tujhe bewajah
A|-----------------------------------------------
E|--7--7--7-----9-----10----7------9/10----7--5--
C|-----------------------------------------------
G|-----------------------------------------------

Ye main hoon ya koi aur hai 
A|--------------------------------------------------------
E|--7-----9-----10----7-----7--7--7-----9-----10----7-----
C|--------------------------------------------------------
G|--------------------------------------------------------

meri tarah
A|------------------------7/9--7--9--9-----12----9---9h10p9--7--7-----
E|--7--7--7-----9-----10----------------------------------------------
C|--------------------------------------------------------------------
G|--------------------------------------------------------------------

Kaise hua, kaise hua
A|--10/12-12----9--7-----10/12-12----9--7-----
E|--------------------------------------------
C|--------------------------------------------
G|--------------------------------------------

Tu itna zaroori kaise hua
A|--5--5--7--5-----7---7/9--9-----7-----5-----5-----2-----------
E|-----------------------------------------------------5--------
C|--------------------------------------------------------------
G|--------------------------------------------------------------

Kaise hua, kaise hua
A|--10/12-12----9--7-----10/12-12/14----9--7-----
E|-----------------------------------------------
C|-----------------------------------------------
G|-----------------------------------------------

Tu itna zaroori kaise hua
A|--5--5--7--5-----7---7/9--9-----7--5-----5-----2--------
E|--------------------------------------------------5-----
C|--------------------------------------------------------
G|--------------------------------------------------------

Main baarish ki boli samajhta nahi tha
A|-----------------------------------------------------------------
E|--10-10-9--10----10-10-9--10----10-10-9--10----10-10-9--10/12----
C|-----------------------------------------------------------------
G|-----------------------------------------------------------------

Hawaaon se main yun ulajhta nahi tha
A|-----------------------------------------------------------------
E|--9--9--7--9-----9--9--7--9-----9--9--7--9-----9--9--7---9/10----
C|-----------------------------------------------------------------
G|-----------------------------------------------------------------

Hai seene mein dil bhi
Kahaan thi mujhe ye khabar
A|--------------------------------------------------------------------
E|--7--7--5--7-----5--------------5--7--5--7-----7--7--5---7/9--5--5--
C|--------------------6--4--6-----------------------------------------
G|--------------------------------------------------------------------

Kya haal ho gaya hai ye mera
A|------7/9--7--7--5--5--4---4h-5p4--5---5/7--
E|--7-----------------------------------------
C|--------------------------------------------
G|--------------------------------------------

Aankhein meri har jagah
Dhoondhe tujhe bewajah
A|---4h-5p4--------------------------------------------------------------------
E|-----------7--7-----9--10-7------9/10-7--5-----7--7--9--10-7---9/10-7--5-----
C|-----------------------------------------------------------------------------
G|-----------------------------------------------------------------------------

tabs and chords, guitar tabs, music transcription, music technology, deep learning, music information retrieval, transcribe into tabs & chords, chordify, music renditions, songsterr, reverbnation, tabulature, bollywood chords, ultimate guitar, yousician, guitar lessons, acoustic guitar, electric guitar, guitar tuner, 911 tabs