Guitar Tabs for Kabir Singh Theme

E|-----------------------------------------------------
B|-----------------------------------------------------
G|-----------------------------------------------------
D|-----------------------------------------------------
A|-----4--4--4-----4--6--7-----4--4--4-----4--6--7-----
D|-----4--4--4-----4--6--7-----4--4--4-----4--6--7-----


E|--------------------------------------------------
B|--------------------------------------------------
G|--------------------------------------------------
D|--4--4--4-----4--6--7-----4--4--4-----4--6--7-----
A|--------------------------------------------------
D|--------------------------------------------------


E|--------------------------------------------------
B|--7--7--7-----7--9--10----7--7--7-----7--9--10----
G|--------------------------------------------------
D|--------------------------------------------------
A|--------------------------------------------------
D|--------------------------------------------------


E|--------------------------------------------------------------------
B|--------------------------------------------------------------------
G|--------------------------------------------------------------------
D|-----2--4--4--4--2--4--4--4--4-----4--2-----2--4--4--4--2--4--4-----
A|--------------------------------------------------------------------
D|--------------------------------------------------------------------


E|-----------------------------------------------------------------
B|--5--7--7--7--5--7--7--7--7-----7--5-----5--7--7--7--5--7--7-----
G|-----------------------------------------------------------------
D|-----------------------------------------------------------------
A|-----------------------------------------------------------------
D|-----------------------------------------------------------------



E|-----------------------------------------------
B|-----------------------------------------------
G|-----------------------------------------------
D|-----------------------------------------------
A|---9\4---------4/9---------9\4---------4/9-----
D|-----------------------------------------------



E|--------------------------------------------------
B|--------------------------------------------------
G|--------------------------------------------------
D|--------------------------------------------------
A|-----4--4--4--4--4-----4--4--4--4--4-----5--2-----
D|-----4--4--4--4--4-----4--4--4--4--4-----5--2-----



E|-----------------------------------------------
B|-----------------------------------------------
G|-----------------------------------------------
D|-----------------------------------------------
A|-----4--4--4--4--4-----4--4--4--4--4-----5-----
D|-----4--4--4--4--4-----4--4--4--4--4-----5-----
tabs and chords, guitar tabs, music transcription, music technology, deep learning, music information retrieval, transcribe into tabs & chords, chordify, music renditions, songsterr, reverbnation, tabulature, bollywood chords, ultimate guitar, yousician, guitar lessons, acoustic guitar, electric guitar, guitar tuner, 911 tabs