Guitar Tabs for Baatein ye kabhi na

Tabs for Song : Baatein ye kabhi na

Baatein ye kabhi na tu bhoolna
E|-----12-11-9--7--9-----------------------
B|--9-----------------9--10/12-10-9--7-----
G|-----------------------------------------
D|-----------------------------------------
A|-----------------------------------------
E|-----------------------------------------

Koi tere khatir hai jee raha
E|-----------------7--------7--------------
B|--7--7--9--10-7--------10----10-9--9-----
G|-----------------------------------------
D|-----------------------------------------
A|-----------------------------------------
E|-----------------------------------------

Jaaye tu kahin, bhi ye sochna
E|-----12-11-9--7--9-----------------------
B|--9-----------------9--10/12-10-9--7-----
G|-----------------------------------------
D|-----------------------------------------
A|-----------------------------------------
E|-----------------------------------------

Koi tere khatir hai jee raha
E|-----------------7--------7--------------
B|--7--7--9--10-7--------10----10-9--9-----
G|-----------------------------------------
D|-----------------------------------------
A|-----------------------------------------
E|-----------------------------------------
Tu jahaan jaaye mehfooz ho

E|-----8--9--11-11-11-12-11-9--9--------
B|--9-----------------------------------
G|--------------------------------------
D|--------------------------------------
A|--------------------------------------
E|--------------------------------------

Tu jahaan jaaye mehfooz ho
E|-----8--9--11-11-11-12-11-9--9--------
B|--9-----------------------------------
G|--------------------------------------
D|--------------------------------------
A|--------------------------------------
E|--------------------------------------

Dil mera maange bas ye duaa
E|--9--11-12-14-11-9--------------------
B|--------------------12-10-12-10-9-----
G|--------------------------------------
D|--------------------------------------
A|--------------------------------------
E|--------------------------------------

Humdard hai humdum bhi hai
E|--------------------------------
B|--9--10-12-12----9--10-12-12----
G|--------------------------------
D|--------------------------------
A|--------------------------------
E|--------------------------------

Tu saath hai to zindagi
E|-----9--11-9-----------------------
B|--12-------------12-10-12-10-9-----
G|-----------------------------------
D|-----------------------------------
A|-----------------------------------
E|-----------------------------------

Tu jo kabhi door rahe
E|--------------------------------
B|--9--10-12-12----9--10-12-12----
G|--------------------------------
D|--------------------------------
A|--------------------------------
E|--------------------------------

Ye humse ho jaye ajnabee
E|-----9--11-9--------------------
B|--12----------12-10-12-10-9-----
G|--------------------------------
D|--------------------------------
A|--------------------------------
E|--------------------------------

Tujh se mohabbat karte hain jo
E|-----8--9--11-11-11-12-11-9--9-----
B|--9--------------------------------
G|-----------------------------------
D|-----------------------------------
A|-----------------------------------
E|-----------------------------------

Kaise kare hum usko bayaa
E|--9--11-12-14-11-9--------------------
B|--------------------12-10-12-10-9-----
G|--------------------------------------
D|--------------------------------------
A|--------------------------------------
E|--------------------------------------

tabs and chords, guitar tabs, music transcription, music technology, deep learning, music information retrieval, transcribe into tabs & chords, chordify, music renditions, songsterr, reverbnation, tabulature, bollywood chords, ultimate guitar, yousician, guitar lessons, acoustic guitar, electric guitar, guitar tuner, 911 tabs