Guitar Tabs for Kabhi Jo Badal Barse - Tabs

(/) Slide Up  (\) Slide Down  (h) Hammer On  (p) Pull Off  (b) Bend (r) Release (v) Vibrato

Tabs for Song : 

Kabhi Jo Badal Barse
E|-----------------------------------
B|--4--3--1--------1-----4--4--3-----
G|-----------3--3--------------------
D|-----------------------------------
A|-----------------------------------
E|-----------------------------------

Main Dekhoon Tujhe Aankhein Bharke..
E|-----------------------------------------
B|--3--4--3--1--------1--1-----------3-----
G|--------------3--3--------3--3--5--------
D|-----------------------------------------
A|-----------------------------------------
E|-----------------------------------------

Tu Lage Mujhe Pahli Baarish Ki Duaa..
E|-----------------------------------------------
B|--4--3--3--1--------1-----4--3-----3--1--------
G|--------------3--3-----------------------3-----
D|-----------------------------------------------
A|-----------------------------------------------
E|-----------------------------------------------

Tere Pahloo Mein Rah Loon..
E|-----------------------------------
B|--4--3--1--------1-----4--4--3-----
G|-----------3--3--------------------
D|-----------------------------------
A|-----------------------------------
E|-----------------------------------

Main Khud Ko Paagal Kah Loon..
E|--------------------------------------
B|--4--3--3--1--------1-----4--4--3-----
G|--------------3--3--------------------
D|--------------------------------------
A|--------------------------------------
E|--------------------------------------

Tu Gam De Ya Khushiyaan Sah Loon Saathiyaa..
E|-----------------------------------------------------
B|--4--3--1--------1-----4--4--3--4--6--3--3--1--------
G|-----------3--3--------------------------------3-----
D|-----------------------------------------------------
A|-----------------------------------------------------
E|-----------------------------------------------------

Koi Nahi, Tere Siva Mera Yahaan..
E|--------------------------------------------
B|--4--3--1--3-----3--4--3--1--4--3--1--3-----
G|--------------------------------------------
D|--------------------------------------------
A|--------------------------------------------
E|--------------------------------------------

Manzilein, Hain Meri To Sabh Yahaan..
E|--1-----------------------------------------
B|-----4--3--4-----3--4--3-----4--3--1--3-----
G|--------------------------5-----------------
D|--------------------------------------------
A|--------------------------------------------
E|--------------------------------------------

Mita De Sabhi Aaja Faansle..
E|--------------1-----------------------------
B|--1--1--3--4-----4-----4-----4--3--1--3-----
G|--------------------------------------------
D|--------------------------------------------
A|--------------------------------------------
E|--------------------------------------------

Main Chahoon Mujhe Mujhse Baant Le..
E|--------------1-----------------------------
B|--1--1--3--4-----4-----4-----4--3--1--3-----
G|--------------------------------------------
D|--------------------------------------------
A|--------------------------------------------
E|--------------------------------------------

Zara Sa Mujhmein Tu Jhaank Le..
E|--3--1--4--3--1-----------------------------
B|-----------------4-----4-----4--3--1--3-----
G|--------------------------------------------
D|--------------------------------------------
A|--------------------------------------------
E|--------------------------------------------

Main Hoon Kya..
E|--------------------
B|--3--3--1-----------
G|-----------3--3-----
D|--------------------
A|--------------------
E|--------------------


Add more lines by placing cursor below and adding notes
tabs and chords, guitar tabs, music contests, music covers, songsterr, reverbnation, renditions, tabulature, bollywood chords, ultimate guitar, yousician, guitar lessons, torrins, fender, gibson, acoustic guitar, electric guitar, youtube covers, gootar, guitar tuner, A-Z tabs, 911 tabs