Guitar Tabs for Kabhi Jo Badal Barse

(/) Slide Up  (\) Slide Down  (h) Hammer On  (p) Pull Off  (b) Bend (r) Release (v) Vibrato (x) Muted

BPM : 200

Intro
e|-----------------------------------------6-----------------------------------------------------------
b|-----3--4--3--4--6--3--------3--4--3--4-----4--3--------3--4--3--4--6--3--------3--------------------
g|--5-----------------------5--------------------------5--------------------3--5-----5-----3-----------
d|--------------------------------------------------------------------------------------------6--5-----
a|-----------------------------------------------------------------------------------------------------
e|-----------------------------------------------------------------------------------------------------

e|-----------------------------------------------------
b|-----4-----4--------3--------------------------------
g|--5-----5-----5--3-----3--5-----5-----5--7-----7--5--
d|-----------------------------6-----6--------8--------
a|-----------------------------------------------------
e|-----------------------------------------------------

e|--------------------------------------------------------------------
b|--------------------------------------------------------------------
g|---3/5--5--7---7h-8p-7p-5\3-----------------------------------------
d|------------------------------5\3--1---1h3--------------------------
a|--------------------------------------------------1-----1--2---2/3--
e|-----------------------------------------------3-----3--------------

e|--------------------------------------------------------------------
b|--------------------------------------------------------------------
g|---3/5--5--7---7h-8p-7p-5\3-----------------------------------------
d|------------------------------5\3--1---3/-5\3-----------------------
a|--------------------------------------------------1-----1--2---2/3--
e|-----------------------------------------------3-----3--------------

e|--------------------------------------------------------------------
b|--------------------------------------------------------------------
g|---3/5--5--7---7h-8p-7p-5\3-----------------------------------------
d|------------------------------5\3--1---1/3--------------------------
a|--------------------------------------------------1-----1--2---2/3--
e|-----------------------------------------------3-----3--------------

Kabhi jo badal barse
e|--------------------------------
b|---3/-4\3---------------3/4--3--
g|-----------5--3--3--5-----------
d|--------------------------------
a|--------------------------------
e|--------------------------------

Mai dekhu tujhe ankhe bharke
E|--'-----------------------------------
B|---3/-4\3-----------------------------
G|-----------5--3--3--5---5p3---3h-5/7--
D|--------------------------------------
A|--------------------------------------
E|--------------------------------------

Tu lage mujhe pehli baarish ki dua
E|------------------------------------------------
B|---3/-4\3---------------3/4--3---4p3-----------
G|-----------5--3--3--5-----------------5--3-----
D|-----------------------------------------------
A|-----------------------------------------------
E|-----------------------------------------------
 
e|-----------------------3--------------------
b|-----------------3--6-----4--3--------------
g|------------5p3-----------------5--3---3/5--
d|---3/-5\3-----------------------------------
a|--------------------------------------------
e|--------------------------------------------

E|-----------------------3--------------------------
B|-----------------3--6-----4--3---------3/-4\3-----
G|------------5p3-----------------5--3-----------5--
D|---3/-5\3-----------------------------------------
A|--------------------------------------------------
E|--------------------------------------------------

e|-----------------------------------------6--------
b|-----3--4--3--4--6--3--------3--4--3--4-----4--3--
g|--5-----------------------5-----------------------
d|--------------------------------------------------
a|--------------------------------------------------
e|--------------------------------------------------

E|-----------------------------------------------------
B|--------3--4--3--4--6--3--------3--------------------
G|-----5--------------------3--5-----5-----3-----------
D|--------------------------------------------6--5-----
A|-----------------------------------------------------
E|-----------------------------------------------------

Koi nahi tere siva mera yahaan
e|--------------------------------------------
b|--4--3--------3--3--3--4--3-----4--3-----3--
g|-----------5-----------------5--------5-----
d|--------------------------------------------
a|--------------------------------------------
e|--------------------------------------------

Manjile hai meri to sabh yahan
E|--------------------------------------------
B|-----6--4--3--4--4--3--4--3-----4--3-----3--
G|-----------------------------5--------5-----
D|--------------------------------------------
A|--------------------------------------------
E|--------------------------------------------

mitade aja sabhi aja faasle
e|-----------------------------------
b|--------3--4--6--4--4---4p3-----3--
g|--5--5-----------------------5-----
d|-----------------------------------
a|-----------------------------------
e|-----------------------------------

Mai chahoo mujhe mujhsenbaat le
E|-----------------------------------
B|--------3--4--6--4--4---4p3-----3--
G|--5--5-----------------------5-----
D|-----------------------------------
A|-----------------------------------
E|-----------------------------------

zara sa mujhme tu jhank le mai hoon kya
E|--3-----4--3-----------------------------------
B|-----6--------6--4--4---4p3-----3---4p3--------
G|-----------------------------5-----------5--3--
D|-----------------------------------------------
A|-----------------------------------------------
E|-----------------------------------------------

e|-----------------------3--------------------
b|-----------------3--6-----4--3--------------
g|------------5p3-----------------5--3---3/5--
d|---3/-5\3-----------------------------------
a|--------------------------------------------
e|--------------------------------------------

E|-----------------------3-----------------------------
B|-----------------3--6-----4--3---------3/-4\3--------
G|------------5p3-----------------5--3--------------5--
D|---3/-5\3--------------------------------------------
A|-----------------------------------------------------
E|-----------------------------------------------------

kabhi jo badal barse
e|-----------------------------------
b|------3/-4\3---------------3/4--3--
g|--5-----------5--3--3--5-----------
d|-----------------------------------
a|-----------------------------------
e|-----------------------------------

mai dekhu tujhe ankhe bharke
E|--------------------------------------
B|---3/-4\3-----------------------------
G|-----------5--3--3--5---5p3---3h-5/7--
D|--------------------------------------
A|--------------------------------------
E|--------------------------------------

tu lge mujhe pehli barish ki dua
E|--------------------------------------------
B|---3/-4\3---------------3/4--3---4p3--------
G|-----------5--3--3--5-----------------5--3--
D|--------------------------------------------
A|--------------------------------------------
E|--------------------------------------------

tere pehlu mai rehlu
e|--------------------------------
b|---3/-4\3---------------3/4--3--
g|-----------5--3--3--5-----------
d|--------------------------------
a|--------------------------------
e|--------------------------------

mai khud ko pagal keh loon
E|--------------------------------------
B|---3/-4\3-----------------------------
G|-----------5--3--3--5---5p3---3h-5/7--
D|--------------------------------------
A|--------------------------------------
E|--------------------------------------

tu gam de ya khushia sehloo saathiya
E|--------------------------------------------
B|---3/-4\3---------------3/4--3---4p3--------
G|-----------5--3--3--5-----------------5--3--
D|--------------------------------------------
A|--------------------------------------------
E|--------------------------------------------

(Rest same)
tabs and chords, guitar tabs, music transcription, music technology, deep learning, music information retrieval, transcribe into tabs & chords, chordify, music renditions, songsterr, reverbnation, tabulature, bollywood chords, ultimate guitar, yousician, guitar lessons, acoustic guitar, electric guitar, guitar tuner, 911 tabs