Guitar Tabs for jumme ki raat hai

Tabs for Song : Arey jumme ki raat hai

E|--------------------------------------------------------------
B|-----4--2--4--2-----4--2--4--2-----4--2--4--2--2--4--6--4-----
G|--3--------------3--------------3-----------------------------
D|--------------------------------------------------------------
A|--------------------------------------------------------------
E|--------------------------------------------------------------

Arey jumme ki raat hai…
E|-----------------2--2-----
B|--4--4--4--2--4-----------
G|--------------------------
D|--------------------------
A|--------------------------
E|--------------------------

Chumme ki baat hai
E|--------------2--2-----
B|--4--4--2--4-----------
G|-----------------------
D|-----------------------
A|-----------------------
E|-----------------------

Allah bachaaye mujhe tere waar se
E|--------------2--2-----------------------
B|--4--4--2--4--------4--4--2--2---2h4-----
G|-----------------------------------------
D|-----------------------------------------
A|-----------------------------------------
E|-----------------------------------------
(Jumma Means – Friday)

Saari ki saari hai tu golabaari
E|-----3--1--------------3--1--------------
B|--4--------4--2--2--4--------4--2--2-----
G|-----------------------------------------
D|-----------------------------------------
A|-----------------------------------------
E|-----------------------------------------

Ki mushqil hai khud ko bachaana
E|-----3--1--------------1-----
B|--4--------4--4--2--4--------
G|-----------------------------
D|-----------------------------
A|-----------------------------
E|-----------------------------

Maar hi na daale, Meri jaan nikaale
E|--------------------------------------
B|--1--2--1--1--1--1--2--4--2--2--2-----
G|--------------------------------------
D|--------------------------------------
A|--------------------------------------
E|--------------------------------------

Uff Allah bachaaye mujhe, Haaye tere pyaar se
E|--------3--3--1--3--1-----------------------------
B|--2--2-----------------2--4--2--4--2--4--2--4-----
G|--------------------------------------------------
D|--------------------------------------------------
A|--------------------------------------------------
E|--------------------------------------------------

jumme ki raat hai
E|--------------2--2-----
B|--4--4--2--4-----------
G|-----------------------
D|-----------------------
A|-----------------------
E|-----------------------
 
Chumme ki baat hai
E|--------------2--2-----
B|--4--4--2--4-----------
G|-----------------------
D|-----------------------
A|-----------------------
E|-----------------------

Allah bachaye mujhe tere waar se
E|--4--4--2--4--2--2-----------------------
B|--------------------4--4--2--2---2h4-----
G|-----------------------------------------
D|-----------------------------------------
A|-----------------------------------------
E|-----------------------------------------

Ik main baat kahoon
E|--------------------------
B|--------------------------
G|--3--3--3--0--0--0--3-----
D|--------------------------
A|--------------------------
E|--------------------------

Do pal saath rahoon
E|--------------------------
B|--------------------------
G|--3--3--3--0--0--0--3-----
D|--------------------------
A|--------------------------
E|--------------------------

Phir main agle hi pal hoon hawa
E|-----------------------------------
B|-----------------------------------
G|--3--3--3--0--0--3--3--5--6--5-----
D|-----------------------------------
A|-----------------------------------
E|-----------------------------------

Kiya jo kuch bhi kahin
E|--------------------------
B|--------------------------
G|--3--3--3--0--0--0--3-----
D|--------------------------
A|--------------------------
E|--------------------------

Mujhe kuch yaad nahi
E|--------------------------
B|--------------------------
G|--3--3--3--0--0--0--3-----
D|--------------------------
A|--------------------------
E|--------------------------

Karoon main kya yeh mujhe tu bata
E|-----------------------------------
B|-----------------------------------
G|--3--3--3--0--0--3--3--5--6--5-----
D|-----------------------------------
A|-----------------------------------
E|-----------------------------------
tabs and chords, guitar tabs, music contests, music covers, songsterr, reverbnation, renditions, tabulature, bollywood chords, ultimate guitar, yousician, guitar lessons, torrins, fender, gibson, acoustic guitar, electric guitar, youtube covers, gootar, guitar tuner, A-Z tabs, 911 tabs