Guitar Tabs for Josue

(/) Slide Up  (\) Slide Down  (h) Hammer On  (p) Pull Off  (b) Bend (r) Release (v) Vibrato (x) Muted

Tabs for Song : 

Song lyrics here
E|-----------------0--------------0--1--3--1--0--5-----1--1-----------0--1--3--1-----0--------0--1--0--
B|-----0--1--0--------1--1-----------------------------3--3--------3--------------------1--3-----------
G|--2-----------2-----2--2-----------------------------------------------------------------------------
D|--------------------------------------------------------------0--------------------------------------
A|-----------------0-----------0-----------------0-----------------------------------0-----------------
E|-----------------------------------------------------------------------------------------------------

E|--------------0--------------------------------0--------------0--1--3--1--0--5-----1--1-----------0--1
B|--3--0--1--3-----3--1--------------0--1--0--------1--1-----------------------------3--3--------3-----
G|--------------------2-----------2-----------2-----2--2-----------------------------------------------
D|-----------------------2--------------------------------------------------------------------0--------
A|--0-----------------0-----3--0-----------------0-----------0-----------------0-----------------------
E|-----------------------------------------------------------------------------------------------------



E|--3--0-------------------0------------------5-----5-----------------5--5--5--3--3-----------------3-----1--1--
B|-----------1--0--1--3-----3--3-----------------------5--5-----5-----5--5-----------3--3-----3-----3-----------
G|-----------2-----------------------------------------------5--------5--5-----------------4--------4-----------
D|--------------------------------2-----------------------------------------------------------------------------
A|-----------0-----------------------3--0-----0--------------------0--------------------------------------------
E|-----------------------------0-----------------------------------------------3-----------------3--------1-----

E|--------------1-----0--3--1-----0-----------0--2--4-----5--5--------------5--5--5-----3--3--------------
B|--1--1-----1--1-----------------0--0--0-----------------------5--5-----5-----5--5-----------3--3-----3--
G|--------2-----2-----------------1--1--1-----------------------------5--------5--5-----------------4-----
D|--------------------------------------------------------------------------------------------------------
A|--------------------------------------------------------0-----------------0-----------------------------
E|--------------1-----------------0-----------0--2--4-----------------------------------3-----------------

E|--3--3--3-----1--1--------------1--0--3--1--0--------------3--
B|-----3--3-----------1--1-----1--1-----------0--0--0--------2--
G|-----4--4-----------------2-----2-----------1--1--1--------2--
D|--------------------------------------------------------------
A|--------------------------------------------------------0-----
E|--3-----------1-----------------1-----------0-----------------

Song lyrics here
E|--
B|--
G|--
D|--
A|--
E|--

Paste any tab in acousterr's tab maker and we'll play it !!!
Now supports capo and sound effects for vibrato/pull-off/hammer/bends/mutes etc !!! Checkout help section
tabs and chords, guitar tabs, music transcription, music technology, deep learning, music information retrieval, transcribe into tabs & chords, chordify, music renditions, songsterr, reverbnation, tabulature, bollywood chords, ultimate guitar, yousician, guitar lessons, acoustic guitar, electric guitar, guitar tuner, 911 tabs