Guitar Tabs for Jory

(/) Slide Up  (\) Slide Down  (h) Hammer On  (p) Pull Off  (b) Bend (r) Release (v) Vibrato (x) Muted

Tabs for Song : 

Song lyrics here
E|--------------------------------------------------------------------------------------------2-----------
B|--------1-----------0-----------1-----------1-----------0-----------1-----------1--------------3--------
G|-----------0-----------0-----------2-----------0-----------0-----------0-----------0--0--2-----------2--
D|-----2-----------2-----------3-----------2-----------2-----------3-----------2--------------------3-----
A|--3-----------------------0-----------3-----------------------0-----------3-----------------------------
E|--------------0-----------------------------------0-----------------------------------------------------

E|--------
B|--1-----
G|-----0--
D|--------
A|--------
E|--------

Song lyrics here
E|--------------------------------------------------------------------------------------------------------
B|--------1-----------0-----------1-----------1-----------0-----------1-----------1-----------0-----------
G|-----------0-----------0-----------0-----------0-----------0-----------2-----------0-----------0--------
D|-----2-----------------------3-----------2-----------------------3-----------2-----------------------3--
A|--3--------------2--------0-----------3--------------2--------0-----------3--------------2--------0-----
E|--------------0-----------------------------------0-----------------------------------3-----------------

E|--------------------------------------------------------------------------------------------------------
B|--1-----------1-----------0-----------1--------0-----------0-----------1--------------1-----------2-----
G|-----2-----------0-----------0--------------------0-----------0-----------0--2-----------0-----------2--
D|-----------2-----------------------3--------------------------------2--------------2-----------2--------
A|--------3--------------2--------0-----------2-----------2--------3--------------3-----------0-----------
E|--------------------3--------------------3-----------0--------------------------------------------------

E|--------------------------------------------------------------------------------0-----------0-----------
B|--------1-----------2-----------0-----------0-----------0-----------0--------5-----------10----10-------
G|-----------0-----------2-----------0-----------0-----------0-----------0--6-----------11----------11-12-
D|-----2-----------2-------------------------------------------------------7---------12-------------------
A|--3-----------0--------------2-----------2-----------2-----------2--------------------------------------
E|--------------------------3-----------0-----------3-----------0-----------------------------------------

E|--------------0--------------------0--------------------0-------------
B|-----------12----12-------------10----10-------------5-----5-----------
G|--11----13----------13-------11----------11-------6-----------6--------
D|-----14----------------14-12----------------12-7-----------------7-----
A|-----------------------------------------------------------------------
E|-----------------------------------------------------------------------

Paste any tab in acousterr's tab maker and we'll play it !!!
Now supports capo and sound effects for vibrato/pull-off/hammer/bends/mutes etc !!! Checkout help section
tabs and chords, guitar tabs, music transcription, music technology, deep learning, music information retrieval, transcribe into tabs & chords, chordify, music renditions, songsterr, reverbnation, tabulature, bollywood chords, ultimate guitar, yousician, guitar lessons, acoustic guitar, electric guitar, guitar tuner, 911 tabs