Guitar Tabs for Jo Bheji Thi Dua - Arijit Singh Tabs

(/) Slide Up  (\) Slide Down  (h) Hammer On  (p) Pull Off  (b) Bend (r) Release (v) Vibrato

Tabs for Song : Jo Bheji Thi Dua

Kise Puchu Hai Aisa Kyu
E|-----------------------
B|-----------------------
G|--5--6---6/8--6--5-----
D|--------------------8--
A|-----------------------
E|-----------------------

Bejubaan Saa Ye Jahaan Hai
E|--------------------------------------------
B|--------4-----------------------------------
G|--5--6-----6--5-----------------6--5--5--5--
D|-----------------8--6--5--5--6--------------
A|--------------------------------------------
E|--------------------------------------------

Khushi Ke Pal Kahaan Dhundoo
E|-----------------------4--3-----
B|-----------4---4/6-----------6--
G|--5--5--6-----------5-----------
D|--------------------------------
A|--------------------------------
E|--------------------------------

Benishaan Sa Waqt Bhi Yahaan Hai
E|--------------------------------------------
B|--------4-----------------------------------
G|--5--6-----6--5-----------------6--5--5--5--
D|-----------------8--6--5--5--6--------------
A|--------------------------------------------
E|--------------------------------------------

Jaane Kitne Labon Pe Gile Hai, Zindagi Se Kai Faasle Hai
E|---3/4--4-----4--4-----4--6--4--------------
B|-----------6--------6-----------6--4--6--4--
G|--------------------------------------------
D|--------------------------------------------
A|--------------------------------------------
E|--------------------------------------------

Base Jitte Hai Sapne Kyun Aankhon Me, Lakire Jab Chhoote In Haathon Se
E|--------------------------------------
B|--6--6--4--4--------------------------
G|--------------6--6--5--5--------5--5--
D|--------------------------8--8--------
A|--------------------------------------
E|--------------------------------------

Yun Bewajah
E|-----------------------
B|-----------------------
G|--5--6---6/8--6--5-----
D|--------------------8--
A|-----------------------
E|-----------------------

Jo Bheji Thi Duaa, Woh Jaake Aasmaan
E|--4--3--4--------4--4--3--4-----------
B|-----------6--6--------------6--6--6--
G|--------------------------------------
D|--------------------------------------
A|--------------------------------------
E|--------------------------------------

Se Yun Takra Gayi, Ki Aa Gayi Hai Laut Ke Sadaa
E|--------4--3--------3-----------------------------------
B|--6--6--------4--4-----4--4--4--------------------------
G|--------------------------------6--5-----------6--5--5--
D|--------------------------------------8--8--8-----------
A|--------------------------------------------------------
E|--------------------------------------------------------
tabs and chords, guitar tabs, music contests, music covers, songsterr, reverbnation, renditions, tabulature, bollywood chords, ultimate guitar, yousician, guitar lessons, torrins, fender, gibson, acoustic guitar, electric guitar, youtube covers, gootar, guitar tuner, A-Z tabs, 911 tabs