Guitar Tabs for Jesus Alegria Dos Homens (incompleto)

(/) Slide Up  (\) Slide Down  (h) Hammer On  (p) Pull Off  (b) Bend (r) Release (v) Vibrato

Tabs for Song : 

Song lyrics here

E|-----------------------0--------3--2--3-----------------------0-----------------------
B|-----------0--3--1--1-----3--3-----------3--0--------0--1--3-----3--2--0-----0--------
G|-----0--2--0--------0--------0-----------------0--2-----------------------2-----0-----
D|--------------------------------------2--------------------------------------------4--
A|--------------------0--------2--------------------------0--------2--------3--------5--
E|--3--------3-----------------------------------0--------------------------------------

E|-----------------------------
B|-----------------1--0-----0--
G|--0--2-----0--2--2-----2--0--
D|--------0--------------------
A|-----------------------------
E|--------3--------2--------3--


Song lyrics here
E|--
B|--
G|--
D|--
A|--
E|--

Add more lines by placing cursor below and adding notes
tabs and chords, guitar tabs, music transcription, music technology, deep learning, music information retrieval, transcribe into tabs & chords, chordify, music renditions, songsterr, reverbnation, tabulature, bollywood chords, ultimate guitar, yousician, guitar lessons, acoustic guitar, electric guitar, guitar tuner, 911 tabs