Guitar Tabs for Asturias (incompleto)

(/) Slide Up  (\) Slide Down  (h) Hammer On  (p) Pull Off  (b) Bend (r) Release (v) Vibrato

Tabs for Song : 

Song lyrics here

E|--------------------------------------
B|-----0-----0-----0-----0-----0-----0--
G|--------------------------------------
D|--------9-----10----7-----9-----------
A|--7-----------------------------10----
E|--------------------------------------

E|--------------------------------------
B|-----0-----0-----0-----0-----0-----0--
G|--------------------------------------
D|--------9-----10----7-----9-----------
A|--7-----------------------------10----
E|--------------------------------------

E|--------------------------------------------------------------------------
B|-----0-----0-----0-----0-----0-----0-----0-----0-----0-----0-----0-----0--
G|--------------------------------------------------------------------------
D|--------9-----10----7-----9-----------7-----------------7-----------------
A|--7-----------------------------10----------9-----10----------9-----10----
E|--------------------------------------------------------------------------

E|--------------------------------------
B|-----0-----0-----0-----0-----0-----0--
G|--------------------------------------
D|--------9-----10----7-----9-----------
A|--7-----------------------------10----
E|--------------------------------------

E|--------------------------------------
B|-----0-----0-----0-----0-----0-----0--
G|--------------------------------------
D|--------9-----10----7-----9-----------
A|--7-----------------------------10----
E|--------------------------------------

E|--------------------------------------------------------------------------------------------------
B|-----0-----0-----0-----0-----0-----0-----0-----0-----0-----0-----0-----0-----0-----0-----0-----0--
G|--------------------------------------------------------------------------------------------------
D|--------9-----10----7-----9-----------7-----------------7-----------------------------------------
A|--7-----------------------------10----------9-----10----------9-----10----7-----------------------
E|--------------------------------------------------------------------------------10----8-----7-----

E|--------------------------------------
B|-----0-----0-----0-----0-----0-----0--
G|--------------------------------------
D|--9-----10----7-----9-----------------
A|--------------------------10----------
E|--------------------------------7-----

E|--------------------------------------
B|-----0-----0-----0-----0-----0-----0--
G|--------------------------------------
D|--9-----10----7-----9-----------------
A|--------------------------10----------
E|--------------------------------7-----

E|--------------------------------------------------------------------------
B|-----0-----0-----0-----0-----0-----0-----0-----0-----0-----0-----0-----0--
G|--------------------------------------------------------------------------
D|--------7-----9-----10----12----9-----10----7-----9-----------------------
A|--9-----------------------------------------------------10----9-----------
E|--------------------------------------------------------------------7-----

E|--------------------------------------
B|-----0-----0-----0-----0-----0-----0--
G|--------------------------------------
D|--9-----10----7-----9-----------------
A|--------------------------10----------
E|--------------------------------7-----

E|--------------------------------------
B|-----0-----0-----0-----0-----0-----0--
G|--------------------------------------
D|--9-----10----7-----9-----------------
A|--------------------------10----------
E|--------------------------------7-----

E|--------------------------------------------------------------------------------
B|-----0-----0-----0-----0-----0-----0-----0-----0-----0-----0-----0-----0-----0--
G|--------------------------------------------------------------------------------
D|--------7-----9-----10----12----9-----10----7-----9-----5-----7-----4-----5-----
A|--9-----------------------------------------------------------------------------
E|--------------------------------------------------------------------------------

E|--------7--------7--------7--------7--------7--------7--------7--
B|-----0--------0--------0--------0--------0--------0--------0-----
G|-----------------------------------------------------------------
D|-----------9--------10-------7--------9--------------------------
A|--7--------------------------------------------10-------7--------
E|--0--------------------------------------------------------------

E|--
B|--
G|--
D|--
A|--
E|--

E|--
B|--
G|--
D|--
A|--
E|--

Song lyrics here
E|--
B|--
G|--
D|--
A|--
E|--

Now supports capo and sound effects for vibrato/pull-off/hammer/bends etc !!! Checkout help section
tabs and chords, guitar tabs, music transcription, music technology, deep learning, music information retrieval, transcribe into tabs & chords, chordify, music renditions, songsterr, reverbnation, tabulature, bollywood chords, ultimate guitar, yousician, guitar lessons, acoustic guitar, electric guitar, guitar tuner, 911 tabs