Guitar Tabs for Jesus Alegria Dos Homens

(/) Slide Up  (\) Slide Down  (h) Hammer On  (p) Pull Off  (b) Bend (r) Release (v) Vibrato

Tabs for Song : 

Song lyrics here
E|--------0--3--1--1--5--3--3--8--7--8--3--0--------0--1--3--5--3--1--0-----0-----------------------1--0-----0--
B|--1--3--------------------------------------1--3-----------------------3-----1--0--1--3-----0--3--------3-----
G|-----------------------------------------------------------------------------------------0--------------------
D|--------------------------------------------------------------------------------------------------------------
A|--------------------------------------------------------------------------------------------------------------
E|--------------------------------------------------------------------------------------------------------------

E|--------0--3--1--1--5--3--3--8--7--8--3--0--------0-----3--1--0--------------------
B|--1--3--------------------------------------1--3-----------------3--1-----1--0--1--
G|-----------------------------------------------------2-----------------0-----------
D|-----------------------------------------------------------------------------------
A|-----------------------------------------------------------------------------------
E|-----------------------------------------------------------------------------------

Song lyrics here
E|--
B|--
G|--
D|--
A|--
E|--

Add more lines by placing cursor below and adding notes
tabs and chords, guitar tabs, music transcription, music technology, deep learning, music information retrieval, transcribe into tabs & chords, chordify, music renditions, songsterr, reverbnation, tabulature, bollywood chords, ultimate guitar, yousician, guitar lessons, acoustic guitar, electric guitar, guitar tuner, 911 tabs