Bass Tabs for Notinha Dos Vagais

(/) Slide Up  (\) Slide Down  (h) Hammer On  (p) Pull Off  (b) Bend (r) Release (v) Vibrato

Tabs for Song : 

Song lyrics here
G|--------------------------------------------------------------------------------------------------------------------------------------------
D|--------------------------------------------------------------------------------------------------------------------------------------------
A|--------------------------------------------------------------------------------------------------------------------------------------------
D|--0--0--0--2--0--3--0--0--5--3--5--0--0--0--2--0--3--0--0--0--7--5--7--0--0--0--2--0--3--0--0--5--3--5--0--0--0--2--0--3--0--0--0--1--1--1--

Song lyrics here
G|--------------------------------------------------------------------
D|--------------------------------------------------------------------
A|--------------------------------------------------------------------
D|--0--0--1--7--0--0--0--0--1--5--7--0--0--1--7--0--0--0--0--1--5--7--

G|-----------------------------------------------------------------------------------------------
D|-----------------------------------------------------------------------------------------------
A|-----------------------------------------------------------------------------------------------
D|--0--0--7--0--0--7--0--0--8--0--0--8--0--0--10-0--0--7--0--0--7--0--0--8--0--0--8--0--0--8--7--

G|-----------------------------------------------------------------------------------------------------------------------------------------------------------------------
D|-----------------------------------------------------------------------------------------------------------------------------------------------------------------------
A|-----------------------------------------------------------------------------------------------------------------------------------------------------------------------
D|--0--0--0--0-----0--0--0--0-----0--0--0--0--3--3--3--3-----3--3--3--3-----3--3--3--3--5--5--5--5-----5--5--5--5-----5--5--5--5-----1--1--1--1--1--1--1--1--1--1--1--1--



Now supports capo and sound effects for vibrato/pull-off/hammer/bends etc !!! Checkout help section
tabs and chords, guitar tabs, music transcription, music technology, deep learning, music information retrieval, transcribe into tabs & chords, chordify, music renditions, songsterr, reverbnation, tabulature, bollywood chords, ultimate guitar, yousician, guitar lessons, acoustic guitar, electric guitar, guitar tuner, 911 tabs