Guitar Tabs for Jeena Yahan Marna Yahan

ye mera geet..
E|--5--5--------5------3/6--6-----5--6------6/9--9--8--9-----9--9--8---6h-8p6-----8--
B|-----------8-----------------------------------------------------------------9-----
G|-----------------------------------------------------------------------------------
D|-----------------------------------------------------------------------------------
A|-----------------------------------------------------------------------------------
E|-----------------------------------------------------------------------------------

jag ko hasane...
E|------3/5--5--------5--5------3/6--6-----5--6------6/9--9--8--9---9/13-13\8--8-----8--8--
B|-----------------8-----------------------------------------------------------------------
G|-----------------------------------------------------------------------------------------
D|-----------------------------------------------------------------------------------------
A|-----------------------------------------------------------------------------------------
E|-----------------------------------------------------------------------------------------

filler
E|---4/6--------------------------------------------
B|--------------6--------4--6---4h-6p4--------------
G|-----------------------------------------6--5-----
D|--------------------------------------------------
A|--------------------------------------------------
E|--------------------------------------------------

swarg yahi....
E|-----------------------------------------------------
B|-----------6-----8---8/9------8/9-----5-----6---6/8--
G|-----5-----------------------------------------------
D|-----------------------------------------------------
A|-----------------------------------------------------
E|-----------------------------------------------------

iske siva...
E|--------------------------------------------------------
B|-----------5-----6--8--8--8------8/9--8-----5---5/6-----
G|-----5--------------------------------------------------
D|--------------------------------------------------------
A|--------------------------------------------------------
E|--------------------------------------------------------

jee chahe jab...
E|---6/8--9-----6--8--8--8-----8-----9--6---6/8-----
B|--------------------------------------------------
G|--------------------------------------------------
D|--------------------------------------------------
A|--------------------------------------------------
E|--------------------------------------------------

hum hai wahin...
E|---4/6-----------------------------------------
B|-----------8---9/11-9------6/8--5---6/8--6-----
G|-----------------------------------------------
D|-----------------------------------------------
A|-----------------------------------------------
E|-----------------------------------------------


apne yahi....
E|-----------------------------------------------
B|--------6-----8---8/9------8/9--5-----6---6/8--
G|--5--------------------------------------------
D|-----------------------------------------------
A|-----------------------------------------------
E|-----------------------------------------------

iske siva...
E|--------------------------------------------------------
B|-----------5-----6--8--8--8------8/9--8-----5---5/6-----
G|-----5--------------------------------------------------
D|--------------------------------------------------------
A|--------------------------------------------------------
E|--------------------------------------------------------
tabs and chords, guitar tabs, music transcription, music technology, deep learning, music information retrieval, transcribe into tabs & chords, chordify, music renditions, songsterr, reverbnation, tabulature, bollywood chords, ultimate guitar, yousician, guitar lessons, acoustic guitar, electric guitar, guitar tuner, 911 tabs