Guitar Tabs for Jeena Jeena - Badlapur

(/) Slide Up  (\) Slide Down  (h) Hammer On  (p) Pull Off  (b) Bend (r) Release (v) Vibrato (x) Muted

Tabs for Song : 
BPM : 100
E|-----------------------------------------------------------h
B|-----------------------------------------------------------
G|--1-----2---------1p2-----------1-----2--4--1--4--1--------
D|--------------4--------2-----4-----------------------4--2--
A|-----------------------------------------------------------
E|-----------------------------------------------------------


Song lyrics here 
E|--------------------------------------
B|--------------------------4-----------
G|--1--4---4/6--4--6--4--6-----6--4--4--
D|--------------------------------------
A|--------------------------------------
E|--------------------------------------

Song lyrics here 
E|--------------------------------
B|--------------------------------
G|--1--4---4/6--4--6--4--1--------
D|--------------------------2--4--
A|--------------------------------
E|--------------------------------

E|--------------------------------------------------------------------
B|--------------------------4-----------5--5--5--4--------------------
G|--1--4---4/6--4--6--4--6-----6--4--4--------------6--4--6--4---4\1--
D|--------------------------------------------------------------------
A|--------------------------------------------------------------------
E|--------------------------------------------------------------------

E|-----------------------------------------------------------------------------
B|--------------------------------------------------------2-----2--------------
G|--4--1--------------1-----1-----------1--4--1--------1-----4-----4--1--------
D|--------4--2--4--4-----4-----2--4--4-----------4--2--------------------2--4--
A|-----------------------------------------------------------------------------
E|-----------------------------------------------------------------------------
Verse- Sachi se hai tareefein ye
E|-----------------------------
B|-----------------------------
G|--1--1--------------------1--
D|--------4---1p2---1h2--4-----
A|-----------------------------
E|-----------------------------

E|--------------------------------
B|--------------------------------
G|--1--1--------------------4--1--
D|--------4---1p2---1h2--4--------
A|--------------------------------
E|--------------------------------

E|--------------------------------
B|--------------------2-----------
G|--1--1--1--2--2--4-----4--2--1--
D|--------------------------------
A|--------------------------------
E|--------------------------------
REPEAT from 2nd Para
Lyrics- O Aasma mila Zameen ko mere
E|--
B|--
G|--
D|--
A|--
E|--

Use manual mode to free up cursor. Paste any tab in acousterr tab maker and we'll play it !!!
tabs and chords, guitar tabs, music transcription, music technology, deep learning, music information retrieval, transcribe into tabs & chords, chordify, music renditions, songsterr, reverbnation, tabulature, bollywood chords, ultimate guitar, yousician, guitar lessons, acoustic guitar, electric guitar, guitar tuner, 911 tabs